Oops, an error
Loading. Please wait.

Living Dead Beat Bass Tab

ver1
ver1
More versions @911Tabs.com
1,601 views 1 this week
1 commentread comment
1 2 3 4 5
accurate
x 1
Autoscroll
+/-
esc
set tempo
stop
Contributor
Hey! There's an official Ultimate Guitar app which is ideal
for learning songs when you're away from computer. Get the app
WARNING: You are trying to view
                                    content from Ultimate-Guitar.com
                                    in an unauthorized application,
                                    which is prohibited.

                                    Please use an official Ultimate
                                    Guitar Tabs application for iPhone,
                                    iPad or Android to access legitimate
                                    chords, guitar, bass, and drum tabs
                                    from Ultimate-Guitar.com database.

                                    Type "ultimate guitar tabs" in Apple
                                    App Store's or Android Market's
                                    search to find the application.
Children of Bodom - Living Dead Beat

Tuning (A D G C F)


F||------------------|------------------|------------------|------------------|
C||------------------|------------------|------------------|------------------|
G||------------------|------------------|------------------|------------------|
D||------------------|------------------|------------------|------------------|
A||------------------|------------------|------------------|------------------|


                                                                            
------------------|------------------|------------------|------------------|
------------------|------------------|------------------|------------------|
------------------|------------------|------------------|------------------|
------------------|------------------|------------------|------------------|
------------------|------------------|------------------|------------------|


                                                                              
------------------|------------------|--------------------|------------------|
------------------|------------------|--------------------|------------------|
------------------|------------------|--------------------|------------------|
------------------|------------------|--------------------|------------------|
------------------|------------------|--3--3--------------|------------------|


                                                                   
--------------------|------------------|--------------------------|
--------------------|------------------|--------------------------|
--------------------|------------------|--------------------------|
--------------------|------------------|--------------------------|
--3--3--------------|------------------|--3-3-3-3--3-3-3-3--------|


                                                                  
------------------|---------------------------|------------------|
------------------|---------------------------|------------------|
------------------|---------------------------|------------------|
------------------|---------------------------|------------------|
------------------|--3-3-3-3--3-3-3-3-3-------|------------------|


                                                            
|-----------------------------|----------------------------|
|*----------------------------|----------------------------|
|-----------------------------|----------------------------|
|*----------------------------|----------------------------|
|---3-3--3-3--3--3-3--3-3--3--|--3-3--3-3--3--3-3-3-3-3----|


                                                             
----------------------------|------------------------------||
----------------------------|-----------------------------*||
----------------------------|------------------------------||
----------------------------|--5-5--5-5--5--6-6-6--8-8-8--*||
--3-3--3-3--3--3-3--3-3--3--|------------------------------||


                                                             
-----------------------------|------------------------------|
-----------------------------|------------------------------|
-----------------------------|------------------------------|
--5-5--5-5--5--6-6-6--8-8-8--|----------------5-5-5-5--5-5--|
-----------------------------|--3-3-3-3--3-3----------------|


                                                                
--------------------------------|------------------------------|
--------------------------------|------------------------------|
--------------------------------|------------------------------|
----------------6-6-6-6-8-8-8-8-|----------------5-5-5-5--5-5--|
--3-3-3-3--3-3------------------|--3-3-3-3--3-3----------------|


                                                                
--------------------------------|------------------------------|
--------------------------------|------------------------------|
--------------------------------|------------------------------|
----------------6-6-6-6-8-8-8-8-|----------------5-5-5-5--5-5--|
--3-3-3-3--3-3------------------|--3-3-3-3--3-3----------------|


                                                                
--------------------------------|------------------------------|
--------------------------------|------------------------------|
--------------------------------|------------------------------|
----------------6-6-6-6-8-8-8-8-|----------------5-5-5-5--5-5--|
--3-3-3-3--3-3------------------|--3-3-3-3--3-3----------------|


                                                              
-------------------|------------------|----------------------|
-------------------|------------------|----------------------|
-------------------|------------------|--------------5-5-5-5-|
-------------------|------------------|----------------------|
--3----------------|------------------|----------------------|


                                                              
------------------------------|------------------------------|
------------------------------|------------------------------|
------------------------------|----------------------5-5-5-5-|
----------4-------------------|---------1--------------------|
--3-3-3-3-----3-3-3-3--3-3-3--|---3-3-3-----3-3-3-3----------|


                                                             
------------------------------|-----------------------------|
------------------------------|-----------------------------|
------------------------------|-----------------------------|
----------4-------------------|---5-5-5-5---5-6-6-6--8-8-8--|
--3-3-3-3-----3-3-3-3--3-3-3--|-----------------------------|


                                                              
------------------------------|------------------------------|
------------------------------|------------------------------|
------------------------------|----------------------5-5-5-5-|
----------4-------------------|---------1--------------------|
--3-3-3-3-----3-3-3-3--3-3-3--|---3-3-3-----3-3-3-3----------|


                                                             
------------------------------|-----------------------------|
------------------------------|-----------------------------|
------------------------------|-----------------------------|
----------4-------------------|---5-5-5-5---5-6-6-6--8-8-8--|
--3-3-3-3-----3-3-3-3--3-3-3--|-----------------------------|


                                                                
------------------------------|--------------------------------|
------------------------------|--------------------------------|
------------------------------|--------------------------------|
----------------5-5-5-5--5-5--|----------------6-6-6-6-8-8-8-8-|
--3-3-3-3--3-3----------------|--3-3-3-3--3-3------------------|


                                                                
------------------------------|--------------------------------|
------------------------------|--------------------------------|
------------------------------|--------------------------------|
----------------5-5-5-5--5-5--|----------------6-6-6-6-8-8-8-8-|
--3-3-3-3--3-3----------------|--3-3-3-3--3-3------------------|


                                                              
------------------------------|------------------------------|
------------------------------|------------------------------|
------------------------------|----------------------5-5-5-5-|
----------4-------------------|---------1--------------------|
--3-3-3-3-----3-3-3-3--3-3-3--|---3-3-3-----3-3-3-3----------|


                                                             
------------------------------|-----------------------------|
------------------------------|-----------------------------|
------------------------------|-----------------------------|
----------4-------------------|---5-5-5-5---5-6-6-6--8-8-8--|
--3-3-3-3-----3-3-3-3--3-3-3--|-----------------------------|


                                                          
--------------------------|------------------------------|
--------------------------|------------------------------|
--------------------------|----------------------5-5-5-5-|
--------------------------|---------1--------------------|
----3---3---3-3-3--3-3-3--|---3-3-3-----3-3-3-3----------|


                                                             
------------------------------|-----------------------------|
------------------------------|-----------------------------|
------------------------------|---------------5-5-5---------|
----------4-------------------|---5-5-5-5---5--------5-5-5--|
--3-3-3-3-----3-3-3-3--3-3-3--|-----------------------------|


                                                                       
--------------------|----------------------------|--------------------|
--------------------|----------------------------|--------------------|
--------------------|--------------------5-5-5-5-|--------------------|
--6--------5--------|----------------------------|--3--------6--------|
--------------------|--3--3--3--3--3--3----------|--------------------|


                                                                           
--------------------------|--------------------|--------------------------|
--------------------------|--------------------|--------------------------|
--------------------------|--------------------|--------------------------|
--------------------------|--8--------7--------|--------------------------|
--3--3--3--3--3--3--3--3--|--------------------|--5--5--5--5--5--5--5--5--|


                                                                    
--------------------|-----------------------|----------------------|
--------------------|-----------------------|----------------------|
-----------2--------|--3--------5-5---2-2---|----------------------|
--5-----------------|-----------------------|----------------------|
--------------------|-----------------------|--5--5------3--3------|


                                                                           
--------------------------|----------------------|------------------------|
--------------------------|----------------------|------------------------|
--------------------------|------------2--2------|--3--3------------------|
------------------7-------|----------------------|-------------3--3-------|
--5--5------5-7-8----8-7/-|--5--5----------------|---------3----------3---|


                                                                         
----------------------|--------------------------|----------------------|
----------------------|--------------------------|----------------------|
----------------------|--------------------------|------------2--2------|
----------------------|------------------7-------|----------------------|
--5--5------3--3------|--5--5------5-7-8----8-7/-|--5--5----------------|


                                                                            
------------------------|-------------------||-----------------------------|
-------------5--5-------|-------------------||*----------------------------|
--3--3--------------5---|-------------------||-----------------------------|
------------------------|-------------------||*----------------------------|
---------3--------------|--5----------------||---3-3--3-3--3--3-3--3-3--3--|


                                                          
----------------------------|----------------------------|
----------------------------|----------------------------|
----------------------------|----------------------------|
----------------------------|----------------------------|
--3-3--3-3--3--3-3-3-3-3----|--3-3--3-3--3--3-3--3-3--3--|


                                                                           
------------------------------||-----------------------------|------------|
-----------------------------*||-----------------------------|------------|
------------------------------||-----------------------------|------------|
--5-5--5-5--5--6-6-6--8-8-8--*||--5-5--5-5--5--6-6-6--8-8-8--|------------|
------------------------------||-----------------------------|----3---3---|


                                                              
------------------------------|------------------------------|
------------------------------|------------------------------|
------------------------------|----------------------5-5-5-5-|
----------4-------------------|---------1--------------------|
--3-3-3-3-----3-3-3-3--3-3-3--|---3-3-3-----3-3-3-3----------|


                                                             
------------------------------|-----------------------------|
------------------------------|-----------------------------|
------------------------------|-----------------------------|
----------4-------------------|---5-5-5-5---5-6-6-6--8-8-8--|
--3-3-3-3-----3-3-3-3--3-3-3--|-----------------------------|


                                                          
--------------------------|------------------------------|
--------------------------|------------------------------|
--------------------------|----------------------5-5-5-5-|
--------------------------|---------1--------------------|
----3---3---3-3-3--3-3-3--|---3-3-3-----3-3-3-3----------|


                                                             
------------------------------|-----------------------------|
------------------------------|-----------------------------|
------------------------------|-----------------------------|
----------4-------------------|---5-5-5-5---5-6-6-6--8-8-8--|
--3-3-3-3-----3-3-3-3--3-3-3--|-----------------------------|


                                                                         
----------------------|--------------------------|----------------------|
----------------------|--------------------------|----------------------|
----------------------|--------------------------|------------2--2------|
----------------------|------------------7-------|----------------------|
--5--5------3--3------|--5--5------5-7-8----8-7/-|--5--5----------------|


                                                                           
------------------------|----------------------|--------------------------|
------------------------|----------------------|--------------------------|
--3--3------------------|----------------------|--------------------------|
-------------3--3-------|----------------------|------------------7-------|
---------3----------3---|--5--5------3--3------|--5--5------5-7-8----8-7/-|


                                                                           
----------------------|------------------------|--------------------------|
----------------------|------------------------|--------------------------|
------------2--2------|--3--3------------------|----------------5/6---8/6-|
----------------------|-------------3--3---5---|--------------------------|
--5--5----------------|---------3--------------|--3-3---3-3---------------|


                                                                  
--------------------------|-------------------|------------------|
--------------------------|-------------------|------------------|
----------------5/6-------|-------------------|------------------|
----------------------6/8-|-------------------|------------------|
--3-3---3-3---------------|--3----------------|------------------|


                                                                 
------------------|------------------|--------------------------|
------------------|------------------|--------------------------|
------------------|------------------|--------------------------|
------------------|------------------|--------------------------|
------------------|------------------|--5--5--5--5--5--5--5--5--|


                                                      
--------------------------|--------------------------|
--------------------------|--------------------------|
--------------------------|--------------------------|
--------------------------|--------------------------|
--5--5--5--5--5--5--5--5--|--5--5--5--5--5--5--5--5--|


                                                      
--------------------------|--------------------------|
--------------------------|--------------------------|
--------------------------|--------------------------|
--------------------------|--------------------------|
--5--5--5--5--5--5--5--5--|--5--5--5--5--5--5--5--5--|


                                                      
--------------------------|--------------------------|
--------------------------|--------------------------|
--------------------------|--------------------------|
--------------------------|--------------------------|
--5--5--5--5--5--5--5--5--|--3--3--3--3--3--3--3--3--|


                                                      
--------------------------|--------------------------|
--------------------------|--------------------------|
--------------------2--2--|--------------------------|
--------------3--3--------|--------------------------|
--5--5--5--5--------------|--5--5--5--5--5--5--5--5--|


                                                      
--------------------------|--------------------------|
--------------------------|--------------------------|
--------------------------|--------------------------|
--------------------------|--------------------------|
--5--5--5--5--5--5--5--5--|--3--3--3--3--3--3--3--3--|


                                                                              
--------------------------|--------------------------|-----------------------|
--------------------------|--------------------------|-----------------------|
--------------2--2--2--2--|--2--2--2--2--2--2--2--2--|--2--2--2--2--2--------|
--------------------------|--------------------------|-----------------------|
--5--5--5--5--------------|--------------------------|-----------------------|


                                                          
----------------------------|----------------------------|
----------------------------|----------------------------|
-----------------5/6----8/6-|-----------------5/6--------|
----------------------------|------------------------6/8-|
--3-3---3-3---3------3------|--3-3---3-3---3------3------|


                                                          
----------------------------|----------------------------|
----------------------------|----------------------------|
-----------------5/6----8/6-|-----------------5/6--------|
----------------------------|------------------------6/8-|
--3-3---3-3---3------3------|--3-3---3-3---3------3------|


                                                          
----------------------------|----------------------------|
----------------------------|----------------------------|
-----------------5/6----8/6-|-----------------5/6--------|
----------------------------|------------------------6/8-|
--3-3---3-3---3------3------|--3-3---3-3---3------3------|


                                                          
----------------------------|----------------------------|
----------------------------|----------------------------|
-----------------5/6----8/6-|-----------------5/6--------|
----------------------------|------------------------6/8-|
--3-3---3-3---3------3------|--3-3---3-3---3------3------|


                                                          
----------------------------|----------------------------|
----------------------------|----------------------------|
-----------------5/6----8/6-|-----------------5/6--------|
----------------------------|------------------------6/8-|
--3-3---3-3---3------3------|--3-3---3-3---3------3------|


                                                          
----------------------------|----------------------------|
----------------------------|----------------------------|
-----------------5/6----8/6-|-----------------5/6--------|
----------------------------|------------------------6/8-|
--3-3---3-3---3------3------|--3-3---3-3---3------3------|


                                                          
----------------------------|----------------------------|
----------------------------|----------------------------|
-----------------5/6----8/6-|-----------------5/6--------|
----------------------------|------------------------6/8-|
--3-3---3-3---3------3------|--3-3---3-3---3------3------|


                                                          
----------------------------|----------------------------|
----------------------------|----------------------------|
-----------------5/6----8/6-|-----------------5/6--------|
----------------------------|------------------------6/8-|
--3-3---3-3---3------3------|--3-3---3-3---3------3------|


                                                          
----------------------------|----------------------------|
----------------------------|----------------------------|
-----------------5/6----8/6-|-----------------5/6--------|
----------------------------|------------------------6/8-|
--3-3---3-3---3------3------|--3-3---3-3---3------3------|


                                                                             
----------------------------|--------------------------|--------------------|
----------------------------|--------------------------|--------------------|
-----------------5/6----8/6-|--------------5--4--3--2--|--------------------|
----------------------------|--------------------------|--6--------5--------|
--3-3---3-3---3------3------|--3-3---3-3---------------|--------------------|


                                                                             
----------------------------|--------------------|--------------------------|
----------------------------|--------------------|--------------------------|
--------------------5-5-5-5-|--------------------|--------------------------|
----------------------------|--3--------6--------|--------------------------|
--3--3--3--3--3--3----------|--------------------|--3--3--3--3--3--3--3--3--|


                                                                     
--------------------|--------------------------|--------------------|
--------------------|--------------------------|--------------------|
--------------------|--------------------------|-----------2--------|
--8--------7--------|--------------------------|--5-----------------|
--------------------|--5--5--5--5--5--5--5--5--|--------------------|


                                                                          
-----------------------|----------------------|--------------------------|
-----------------------|----------------------|--------------------------|
--3--------5-5---2-2---|----------------------|--------------------------|
-----------------------|----------------------|------------------7-------|
-----------------------|--5--5------3--3------|--5--5------5-7-8----8-7/-|


                                                                       
----------------------|------------------------|----------------------|
----------------------|------------------------|----------------------|
------------2--2------|--3--3------------------|----------------------|
----------------------|-------------3--3-------|----------------------|
--5--5----------------|---------3----------3---|--5--5------3--3------|


                                                                           
--------------------------|----------------------|------------------------|
--------------------------|----------------------|-------------5--5-------|
--------------------------|------------2--2------|--3--3---5----------5---|
------------------7-------|----------------------|------------------------|
--5--5------5-7-8----8-7/-|--5--5----------------|------------------------|


                                                            
-------------------|------------------|--------------------|
-------------------|------------------|--------------------|
-------------------|------------------|--------------------|
-------------------|------------------|--------------------|
--5----------------|------------------|--5--5--------------|


                                                
---------------------------|------------------||
---------------------------|------------------||
---------------------------|------------------||
---------------------------|------------------||
--5-5-5-5--5-5-5-5-5-------|------------------||
comments
We did not receive enough feedback on this tab! Please rate:
print report bad tab
1 2 3 4 5
1 comment total.
0 reply
metallicax6 wrote on November 24 2007, 03:28 pm

It's on a 4-string, tuned to C,G,C,F (Drop-C).

I want to post or [tab]
guest
You may want to rate the tab now too:
select rating
Please do not post tabs as comments. Select "correction" instead!