Oops, an error
Loading. Please wait.

Living Dead Beat Tab

ver1
ver1

Intro

Solo

Whole song

More versions @911Tabs.com
40,342 views 61 this week
4 commentsread comments
1 2 3 4 5
accurate
x 15
Autoscroll
+/-
esc
set tempo
stop
Contributor
WARNING: You are trying to view
                                    content from Ultimate-Guitar.com
                                    in an unauthorized application,
                                    which is prohibited.

                                    Please use an official Ultimate
                                    Guitar Tabs application for iPhone,
                                    iPad or Android to access legitimate
                                    chords, guitar, bass, and drum tabs
                                    from Ultimate-Guitar.com database.

                                    Type "ultimate guitar tabs" in Apple
                                    App Store's or Android Market's
                                    search to find the application.
#----------------------------------PLEASE NOTE---------------------------------#
#This file is the author's own work and represents their interpretation of the #
#song. You may only use this file for private study, scholarship, or research. #
#------------------------------------------------------------------------------#

LIVING DEAD BEAT
As recorded by Children Of Bodom
(From the 2005 Album ARE YOU DEAD YET?)

Transcribed by Dragon666
        

Words and Music by Alexi Laiho
Arranged by Children Of Bodom

Gtr I (C G C F A D) - 'Alexi Laiho'
Gtr II (C G C F A D) - 'Roope Latvala'
Gtr III (C G C F A D) - 'Alexi Lead'
Gtr IV (C G C F A D) - 'Janne Warman'
Gtr V (C G C F A D) - 'Janne Lead'

 Intro
  Moderate Thrash Metal Q=130
  N.C.
 4/4
  Gtr IV
  Wx6
|--------|
|--------|
|--------|
|--------|
|--------|
|--------|


  N.C.
  Gtr IV
   E  E  E  E  E  E  E  E    E  E  E  E  E  E  E  E
|-------17-17-------15-15-|-------------------------|
|-15-15-------15-15-------|-15-15-18-18-13-13-17-17-|
|-------------------------|-------------------------|
|-------------------------|-------------------------|
|-------------------------|-------------------------|
|-------------------------|-------------------------|


   E  E  E  E  E  E  E  E    E  E  E  E  E  E  E  E
|-------17-17-------15-15-|--------------------------|
|-15-15-------15-15-------|-15-15-18-18-17-17--------|
|-------------------------|-------------------14-14--|
|-------------------------|--------------------------|
|-------------------------|--------------------------|
|-------------------------|--------------------------|


  C5
  Gtr IV
   E  E  E  E  E  E  E  E    E  E  E  E  E  E  E    E
|-------17-17-------15-15-|-----------------------------|
|-15-15-------15-15-------|-15-15-18-18-13-13-17---17---|
|-------------------------|-----------------------------|
|-------------------------|-----------------------------|
|-------------------------|-----------------------------|
|-------------------------|-----------------------------|
|
| Gtr I
|  PM|
|  E  E  Q     H             H           Q     S S  S S
|-------------------------|-----------------------------|
|-------------------------|-----------------------------|
|-------------------------|-----------------------------|
|-------------------------|-----------------------------|
|--0--0-------------------|-----------------------------|
|--0--0-------------------|-------------------/xSxS=xSx-|
|
| Gtr II
|  PM|
|  E  E  Q     H             H           Q     S S  S S
|-------------------------|-----------------------------|
|-------------------------|-----------------------------|
|-------------------------|-----------------------------|
|-------------------------|-----------------------------|
|--0--0-------------------|-----------------------------|
|--0--0-------------------|-------------------/xSxS=xSx-|


   E  E  E  E         E      E  E  E    E   E  E  E  E  E  E     E
|-------17-17------------------15-15-|------------------------------||
|-15-15--------------15-----15-------|-15--15-18-18-17-17-----------||
|------------------------------------|--------------------14----14--||
|------------------------------------|------------------------------||
|------------------------------------|------------------------------||
|------------------------------------|------------------------------||
|
|              \0.5___/2.5_________________________________\0.5
|  PM|
|  E  E  Q     a     +H                +H.                +E    +E
|------------------------------------|------------------------------||
|------------------------------------|------------------------------||
|------------------------------------|------------------------------||
|-------------<4>----(4)-------------|-(4)----------------(4)---(4)-||
|--0--0------------------------------|------------------------------||
|--0--0------------------------------|------------------------------||
|
|              \0.5___/2.5_________________________________\0.5
|  PM
|  E  E  Q     a     +H                +H.                +E    +E
|------------------------------------|------------------------------||
|------------------------------------|------------------------------||
|------------------------------------|------------------------------||
|------------------------------------|------------------------------||
|--0--0-------<4>----(4)-------------|-(4)----------------(4)---(4)-||
|--0--0------------------------------|------------------------------||


  C5
  Gtr IV
   E    E    E    E    E   E    E  E      E  E  E  E  E  E  E  E
|-----------17---17------------15-15---|-------------------------|
|-15---15-------------15--15-----------|-15-15-18-18-13-13-17-17-|
|--------------------------------------|-------------------------|
|--------------------------------------|-------------------------|
|--------------------------------------|-------------------------|
|--------------------------------------|-------------------------|
|
| Gtrs I, II
|  |
|  PM-----------------|
|  S S  S e    S  S S  e.    Q       S    W
|--------------------------------------|-------------------------|
|--------------------------------------|-------------------------|
|--------------------------------------|-------------------------|
|--------------------------------------|-------------------------|
|--0-0--0-0----0--0-0--0---------------|-------------------------|
|--0-0--0-0----0--0-0--0---------------|-------------------------|


                                                   C5
   E    E    E    E    E     E  E  E    E  E  E  E  E   E  E  E
|-----------17---17------------15-15-|--------------------------|
|-15---15-------------15----15-------|-15-15-18-18-17--17-------|
|------------------------------------|--------------------14-14-|
|------------------------------------|--------------------------|
|------------------------------------|--------------------------|
|------------------------------------|--------------------------|
|
|  PM--------------------|
|  S S  S e    S  S S  S e.     Q       H           H
|------------------------------------|--------------------------|
|------------------------------------|--------------------------|
|------------------------------------|--------------------------|
|------------------------------------|--------------------------|
|--0-0--0-0----0--0-0--0-0-----------|-------------12\----------|
|--0-0--0-0----0--0-0--0-0-----------|-------------12\----------|


   Main Theme
    C5
    Gtrs III, IV
     PM|         PM|         PM|         PM|
     S  S  S  S  S  S  S  S  S  S  S  S  S  S  S  S
||--------------------------------------------------|
||o-------------------------------------------------|
||--------14-14-------12-12-------------------------|
||--12-12-------12-12-------12-12-15-15-------14-14-|
||o-------------------------------------15-15-------|
||--------------------------------------------------|
|
|   Gtrs I, II
|    PM----------------------------------------------
|    S  e     S  e     e     S  e     S  e     e
||--------------------------------------------------|
||o-------------------------------------------------|
||--------------------------------------------------|
||--------------------------------------------------|
||o--0--0-----0--0-----0-----0--0-----0--0-----0----|
||---0--0-----0--0-----0-----0--0-----0--0-----0----|


   PM|         PM|         PM|
   S  S  S  S  S  S  S  S  S  S  S  S  S  S  S  S
|-------------------------------------------------|
|-------------------------------------------------|
|-------14-14-------12-12-------------------------|
|-12-12-------12-12-------10-10-15-15-14-14-------|
|-------------------------------------------15-15-|
|-------------------------------------------------|
|
|----------------------------------|         PM
|  S  e     S  e     e     S  S  S  S  S  S  E
|-------------------------------------------------|
|-------------------------------------------------|
|-------------------------------------------------|
|-------------------------------------------------|
|--0--0-----0--0-----0-----0--0--0--0--0--0-------|
|--0--0-----0--0-----0-----0--0--0--0--0--0-------|


  C5
   PM|         PM|         PM|         PM|
   S  S  S  S  S  S  S  S  S  S  S  S  S  S  S  S
|-------------------------------------------------|
|-------------------------------------------------|
|-------14-14-------12-12-------------------------|
|-12-12-------12-12-------12-12-15-15-------14-14-|
|-------------------------------------15-15-------|
|-------------------------------------------------|
|
|  PM----------------------------------------------
|  S  e     S  e     e     S  e     S  e     e
|-------------------------------------------------|
|-------------------------------------------------|
|-------------------------------------------------|
|-------------------------------------------------|
|--0--0-----0--0-----0-----0--0-----0--0-----0----|
|--0--0-----0--0-----0-----0--0-----0--0-----0----|


  G5                      G#5         Bb5
   PM|         PM|         PM
   S  S  S  S  S  S  S  S  S  S  S  S  S  S  S  S
|--------------------------------------------------||
|-------------------------------------------------o||
|-------12-12-------10-10----------------------17--||
|-10-10-------10-10----------12-14-15-12-14-15-----||
|-------------------------15----------------------o||
|--------------------------------------------------||
|
|----------------------------|         PM|
|  S  e     S  e     e     S  S  E     S  S  E
|--------------------------------------------------||
|-------------------------------------------------o||
|--------------------------------3-----------5-----||
|--2--2-----2--2-----2-----3--3--3-----5--5--5-----||
|--0--0-----0--0-----0-----1--1--1-----3--3--3----o||
|--------------------------------------------------||


  N.C.
  Gtr I
  S S S E S E S S S E S E   S S S E S E S S S S S S S S
|-------------------------|-----------------------------|
|-------------------------|-----------------------------|
|-------------------------|-----------------------------|
|---------------3---------|-------------------------2-3-|
|-0-5-3-0-3-5-0---7-3-5-7-|-0-5-3-0-3-5-0-5-3-0-3-5-----|
|-------------------------|-----------------------------|
|
| Gtr II
| S S S E S E S S S E S E   S S S E S E S S S S S S S S
|-------------------------|-----------------------------|
|-------------------------|-----------------------------|
|-------------------------|-----------------------------|
|---------------3---------|---------------3-------3-5-7-|
|-0-5-3-0-3-5-0---7-3-5-7-|-0-5-3-0-3-5-0---7-3-7-------|
|-------------------------|-----------------------------|


  S S S E S E S S S E S E
|--------------------------|
|--------------------------|
|--------------------------|
|---------------3----------|
|-0-5-3-0-3-5-0---7-3-5-7--|
|--------------------------|
|
| S S S E S E S S S E S E
|--------------------------|
|--------------------------|
|--------------------------|
|---------------3----------|
|-0-5-3-0-3-5-0---7-3-5-7--|
|--------------------------|


  N.C.
  S S S E S E S S S S S S S S   S S S E S E S S S E S E
|-----------------------------|-------------------------|
|-----------------------------|-------------------------|
|-----------------------------|-------------------------|
|-------------------------2-3-|---------------3---------|
|-0-5-3-0-3-5-0-5-3-0-3-5-----|-0-5-3-0-3-5-0---7-3-5-7-|
|-----------------------------|-------------------------|
|
| S S S E S E S S S S S S S S   S S S E S E S S S E S E
|-----------------------------|-------------------------|
|-----------------------------|-------------------------|
|-----------------------------|-------------------------|
|---------------3-------3-5-7-|---------------3---------|
|-0-5-3-0-3-5-0---7-3-7-------|-0-5-3-0-3-5-0---7-3-5-7-|
|-----------------------------|-------------------------|


  S S S E S E S S S S S S S S
|------------------------------|
|------------------------------|
|------------------------------|
|-------------------------2-3--|
|-0-5-3-0-3-5-0-5-3-0-3-5------|
|------------------------------|
|
| S S S E S E S S S S S S S S
|------------------------------|
|------------------------------|
|------------------------------|
|---------------3-------3-5-7--|
|-0-5-3-0-3-5-0---7-3-7--------|
|------------------------------|


  N.C.
  S S S E S E S S S E S E   S S E Q  H
|-------------------------|---------------||
|-------------------------|---------------||
|-------------------------|---------------||
|---------------3---------|-3-3-----------||
|-0-5-3-0-3-5-0---7-3-5-7-|---------------||
|-------------------------|---------------||
|
| S S S E S E S S S E S E   S S E Q  H
|-------------------------|---------------||
|-------------------------|---------------||
|-------------------------|---------------||
|---------------3---------|-3-3-----------||
|-0-5-3-0-3-5-0---7-3-5-7-|---------------||
|-------------------------|---------------||


 1st Verse
  C5                                                      Eb/C
  Gtr I
  PM----| ~~~~~~~~PM--------------------| ~~~~~~~~PM----|
  S S S S E   +S  S S S e S S e   S S S S E   +S  S S S e S S S S
|-------------------------------|---------------------------------|
|-------------------------------|-------------------------6-6-6-6-|
|-------------------------------|-------------------------x-x-x-x-|
|-------------------------------|-------------------------7-7-7-7-|
|-------------------------------|-------------------------5-5-5-5-|
|-0-0-0-0-2b5r(2)-0-0-0-0-0-0-0-|---0-0-0-1b3r(1)-0-0-0-0---------|
|
| Gtr II
| PM|
| S S E   Q         H             H                 Q     S S S S
|-------------------------------|---------------------------------|
|-------------------------------|-------------------------6-6-6-6-|
|-------------------------------|-------------------------x-x-x-x-|
|-------------------------------|-------------------------7-7-7-7-|
|-0-0---------------------------|-------------------------5-5-5-5-|
|-0-0---------------------------|---------------------------------|


  N.C.                                                    Eb/C
  Gtrs I, II
  PM----| ~~~~~~~~PM--------------------| ~~~~~~~~PM----|
  S S S S E   +S  S S S e S S e   S S S S E   +S  S S S e S S S S
|-------------------------------|---------------------------------|
|-------------------------------|-------------------------6-6-6-6-|
|-------------------------------|-------------------------x-x-x-x-|
|-------------------------------|-------------------------7-7-7-7-|
|-------------------------------|-------------------------5-5-5-5-|
|-0-0-0-0-2b5r(2)-0-0-0-0-0-0-0-|---0-0-0-1b3r(1)-0-0-0-0---------|


  N.C.
  Gtr I
  PM----| ~~~~~~~~PM----------|     PM--|    PM----------|
  S S S S E   +S  S S S e S S e   S S S S E. S S S e S S e
|-------------------------------|--------------------------|
|-------------------------------|--------------------------|
|-------------------------------|--------------------------|
|-------------------------------|---2-2-2-2--2-2-2-2-3-3-3-|
|-------------------------------|--------------------------|
|-0-0-0-0-2b5r(2)-0-0-0-0-0-0-0-|--------------------------|
|
| Gtr II
| PM----| ~~~~~~~~PM----------|     PM--|    PM----------|
| S S S S E   +S  S S S e S S e   S S S S E. S S S e S S e
|-------------------------------|--------------------------|
|-------------------------------|--------------------------|
|-------------------------------|--------------------------|
|-------------------------------|--------------------------|
|-------------------------------|---0-0-0-0--0-0-0-0-1-1-1-|
|-0-0-0-0-2b5r(2)-0-0-0-0-0-0-0-|--------------------------|


  N.C.                                                    D/B
  Gtrs I, II
    PM--| ~~~~~~~~PM--------------------| ~~~~~~~~PM----|
  S S S S E   +S  S S S e S S e   S S S S E   +S  S S S e S S S S
|-------------------------------|---------------------------------|
|-------------------------------|-------------------------5-5-5-5-|
|-------------------------------|-------------------------x-x-x-x-|
|-------------------------------|-------------------------6-6-6-6-|
|-------------------------------|-------------------------4-4-4-4-|
|---0-0-0-2b5r(2)-0-0-0-0-0-0-0-|---0-0-0-1b3r(1)-0-0-0-0---------|


  N.C.
  Gtr I
  PM----| ~~~~~~~~PM----------|     PM--|    PM  PM
  S S S S E   +S  S S S e S S e   S S S S E. S E E S S S S
|-------------------------------|--------------------------||
|-------------------------------|--------------------------||
|-------------------------------|--------------------------||
|-------------------------------|---2-2-2-2--2-3-3-----2-3-||
|-------------------------------|------------------3-5-----||
|-0-0-0-0-2b5r(2)-0-0-0-0-0-0-0-|--------------------------||
|
| Gtr II
| PM----| ~~~~~~~~PM----------|     PM--|    PM  PM
| S S S S E   +S  S S S e S S e   S S S S E. S E E S S S S
|-------------------------------|--------------------------||
|-------------------------------|--------------------------||
|-------------------------------|--------------------------||
|-------------------------------|----------------------2-3-||
|-------------------------------|---0-0-0-0--0-1-1-3-5-----||
|-0-0-0-0-2b5r(2)-0-0-0-0-0-0-0-|--------------------------||


  N.C.
  S S S E S E S S S E S E   S S S E S E S S S S S S S S
|-------------------------|-----------------------------|
|-------------------------|-----------------------------|
|-------------------------|-----------------------------|
|---------------3---------|-------------------------2-3-|
|-0-5-3-0-3-5-0---7-3-5-7-|-0-5-3-0-3-5-0-5-3-0-3-5-----|
|-------------------------|-----------------------------|
|
| S S S E S E S S S E S E   S S S E S E S S S S S S S S
|-------------------------|-----------------------------|
|-------------------------|-----------------------------|
|-------------------------|-----------------------------|
|---------------3---------|---------------3-------3-5-7-|
|-0-5-3-0-3-5-0---7-3-5-7-|-0-5-3-0-3-5-0---7-3-7-------|
|-------------------------|-----------------------------|


  N.C.
  S S S E S E S S S E S E   S S S E S E S S S S S S S S
|-------------------------|-----------------------------||
|-------------------------|-----------------------------||
|-------------------------|-----------------------------||
|---------------3---------|-------------------------2-3-||
|-0-5-3-0-3-5-0---7-3-5-7-|-0-5-3-0-3-5-0-5-3-0-3-5-----||
|-------------------------|-----------------------------||
|
| S S S E S E S S S E S E   S S S E S E S S S S S S S S
|-------------------------|-----------------------------||
|-------------------------|-----------------------------||
|-------------------------|-----------------------------||
|---------------3---------|---------------3-------3-5-7-||
|-0-5-3-0-3-5-0---7-3-5-7-|-0-5-3-0-3-5-0---7-3-7-------||
|-------------------------|-----------------------------||


 2nd Verse
  N.C.                                                    Eb/C
  Gtrs I, II
  PM----| ~~~~~~~~PM--------------------| ~~~~~~~~PM----|
  S S S S E   +S  S S S e S S e   S S S S E   +S  S S S e S S S S
|-------------------------------|---------------------------------|
|-------------------------------|-------------------------6-6-6-6-|
|-------------------------------|-------------------------x-x-x-x-|
|-------------------------------|-------------------------7-7-7-7-|
|-------------------------------|-------------------------5-5-5-5-|
|-0-0-0-0-2b5r(2)-0-0-0-0-0-0-0-|---0-0-0-1b3r(1)-0-0-0-0---------|


  N.C.
  Gtr I
  PM----| ~~~~~~~~PM----------|     PM--|    PM----------|
  S S S S E   +S  S S S e S S e   S S S S E. S S S e S S e
|-------------------------------|--------------------------|
|-------------------------------|--------------------------|
|-------------------------------|--------------------------|
|-------------------------------|---2-2-2-2--2-2-2-2-3-3-3-|
|-------------------------------|--------------------------|
|-0-0-0-0-2b5r(2)-0-0-0-0-0-0-0-|--------------------------|
|
| Gtr II
| PM----| ~~~~~~~~PM----------|     PM--|    PM----------|
| S S S S E   +S  S S S e S S e   S S S S E. S S S e S S e
|-------------------------------|--------------------------|
|-------------------------------|--------------------------|
|-------------------------------|--------------------------|
|-------------------------------|--------------------------|
|-------------------------------|---0-0-0-0--0-0-0-0-1-1-1-|
|-0-0-0-0-2b5r(2)-0-0-0-0-0-0-0-|--------------------------|


    C5                                          D/B
  Gtrs I, II
    PM------------------------| ~~~~~~~~PM----|
  E e. e. S S e S S e   S S S S E   +S  S S S e S S S S
|---------------------|---------------------------------|
|---------------------|-------------------------5-5-5-5-|
|---------------------|-------------------------x-x-x-x-|
|---------------------|-------------------------6-6-6-6-|
|---0--0--------------|-------------------------4-4-4-4-|
|---0--0--0-0-0-0-0-0-|---0-0-0-1b3r(1)-0-0-0-0---------|


  N.C.                                        C5    G5
  Gtr I
  PM----|  ~~~ PM--------|     PM--|    PM--|   PM|
  S S S S  Q   S S e S S e   S S S S E. S S S E S S E
|--------------------------|--------------------------||
|--------------------------|--------------------------||
|--------------------------|------------------7-----2-||
|--------------------------|---2-2-2-2--2-----7-----2-||
|---------[3]--------------|--------------0-0-5-0-0-0-||
|-0-0-0-0------0-0-0-0-0-0-|--------------------------||
|
| Gtr II
| PM----|  ~~~ PM--------|     PM--|    PM--|   PM|
| S S S S  Q   S S e S S e   S S S S E. S S S E S S E
|--------------------------|--------------------------||
|--------------------------|--------------------------||
|--------------------------|------------------7-------||
|--------------------------|------------------7-----7-||
|---------[3]--------------|---0-0-0-0--0-----5-----7-||
|-0-0-0-0------0-0-0-0-0-0-|--------------0-0---0-0-7-||


 Pre-Chorus
  G#5  G5                             Eb/C
  Gtr IV
  H    H      H               Q       E E
|-6----5----|-----------------------------|
|-6----5----|-------------------------6-6-|
|-3----2----|-------------------------7-7-|
|-3----2----|-------------------------7-7-|
|-----------|-------------------------5-5-|
|-----------|-----------------------------|
|
| Gtrs I, II
|             PM|     PM|     PM----|
| H    H      S S  E  S S  E  S S S S E E
|-----------|-----------------------------|
|-----------|-------------------------6-6-|
|-3----2----|-------------------------x-x-|
|-3----2----|-------------------------7-7-|
|-1----0----|-----<5>-----<5>---------5-5-|
|-----------|-0-0-----0-0-----0-0-0-0-----|


  F5   G#5                              Eb/C
  H     H      H                Q       E E
|------------|------------------------------|
|-8----11----|--------------------------6-6-|
|-7----10----|--------------------------7-7-|
|-5-----8----|--------------------------7-7-|
|-5-----8----|--------------------------5-5-|
|------------|------------------------------|
|
| Gtr I
|              PM|     PM|      PM----|
| H     H      S S S S S S  S S S S S S E E
|------------|------------------------------|
|------------|--------------------------6-6-|
|------------|--------------------------x-x-|
|-5-----8----|--------------------------7-7-|
|-5-----8----|-----7h8-----10p8---------5-5-|
|-5-----8----|-0-0-----0-0------0-0-0-0-----|
|
| Gtr II
|              PM|     PM|      PM----|
| H     H      S S S S S S  S S S S S S E E
|------------|------------------------------|
|------------|--------------------------6-6-|
|------------|--------------------------x-x-|
|-5-----8----|--------------------------7-7-|
|-5-----8----|-----7h8------7h8---------5-5-|
|-5-----8----|-0-0-----0-0------0-0-0-0-----|


  Bb5  A5                             E/C#
  Gtr IV
  H    H      H               Q       E E
|-8----7----|-----------------------------||
|-8----7----|-------------------------7-7-||
|-5----4----|-------------------------8-8-||
|-5----4----|-------------------------8-8-||
|-----------|-------------------------6-6-||
|-----------|-----------------------------||
|
| Gtrs I, II
|             PM|     PM|     PM----|
| H    H      S S  E  S S  E  S S S S E E
|-----------|-----------------------------||
|-----------|-------------------------7-7-||
|-5----4----|-------------------------x-x-||
|-5----4----|-----<3>-----<3>---------8-8-||
|-3----2----|-------------------------6-6-||
|-----------|-0-0-----0-0-----0-0-0-0-----||


  G5                       A5
  Gtr III
    S  S  S  S  S  S  S  S  S  S  S  S  S  S  S  S
|-----15-14-15-12-15-10-15----15-14-15-12-15-10-15-|
|-/10----------------------12----------------------|
|--------------------------------------------------|
|--------------------------------------------------|
|--------------------------------------------------|
|--------------------------------------------------|
|
| Gtr IV
|   H                       H
|--------------------------------------------------|
|---5-----------------------7----------------------|
|---2-----------------------4----------------------|
|---2-----------------------4----------------------|
|--------------------------------------------------|
|--------------------------------------------------|
|
| Gtrs I, II
|   H                       H
|--------------------------------------------------|
|--------------------------------------------------|
|---2-----------------------4----------------------|
|---2-----------------------4----------------------|
|---0-----------------------2----------------------|
|--------------------------------------------------|


  Bb5                     C5           A5
   S  S  S  S  S  S  S  S   S  S  S  S  S  S  S  S
|----15-14-15-12-15-10-15-/17-14-------19-14-------||
|-13-----------------------------15----------15----||
|-----------------------------------16----------16-||
|--------------------------------------------------||
|--------------------------------------------------||
|--------------------------------------------------||
|
|  H                        H
|--------------------------------------------------||
|--8-----------------------------------------------||
|--5-----------------------------------------------||
|--5-----------------------------------------------||
|--------------------------------------------------||
|--------------------------------------------------||
|
|  H                        S  e     S  S  e     S
|--------------------------------------------------||
|--------------------------------------------------||
|--5------------------------7--7--------4--4-------||
|--5------------------------7--7--------4--4-------||
|--3------------------------5--5--------2--2-------||
|--------------------------------------------------||


 Chorus
  D5          C5            D5
  Gtr IV
   E  E Q      E  E Q        E  E Q     H
|-12-12-------10-10-------|-12-12-------------------|
|-12-12-------10-10-------|-12-12-------------------|
|--9--9--------7--7-------|--9--9-------------------|
|--9--9--------7--7-------|--9--9-------------------|
|-------------------------|-------------------------|
|-------------------------|-------------------------|
|
| Gtrs I, II
|                                       PM--|
|  E  E S E S  E  E S E S    E  E S E S S S S E S E
|-------------------------|-------------------------|
|-------------------------|-------------------------|
|--9--9-x-x-x--7--7-x-x-x-|--9--9-x-x-x-------------|
|--9--9-x-x-x--7--7-x-x-x-|--9--9-x-x-x-------0-----|
|--7--7-x-x-x--5--5-x-x-x-|--7--7-x-x-x---0-2---2-0-|
|-------------------------|-------------5-----------|


  D5          A5          Bb5   C5   F5      C5
   E  E Q     E E Q       E E S  E S  E  E S  E S
|-12-12-------7-7-------|-8-8---10---15-15---10-----|
|-12-12-------7-7-------|-8-8---10---15-15---10-----|
|--9--9-------4-4-------|-5-5----7---12-12----7-----|
|--9--9-------4-4-------|-5-5----7---12-12----7-----|
|-----------------------|---------------------------|
|-----------------------|---------------------------|
|
|                             PM   PM      PM   PM
|  E  E S E S E E S E S   E E S  E S  E  E S  E S
|-----------------------|---------------------------|
|-----------------------|---------------------------|
|--9--9-x-x-x-4-4-x-x-x-|-5-5--------12-12----------|
|--9--9-x-x-x-4-4-x-x-x-|-5-5----0---12-12----0-----|
|--7--7-x-x-x-2-2-x-x-x-|-3-3----0---10-10----0-----|
|-----------------------|-----0--0-0-------0--0-0---|


  D5          C5                      D5
   E  E Q      E  E  Q                 E  E Q      H
|-12-12-------10-10-----------------|-12-12--------------------|
|-12-12-------10-10-----------------|-12-12--------------------|
|--9--9--------7--7-----------------|--9--9--------------------|
|--9--9--------7--7-----------------|--9--9--------------------|
|-----------------------------------|--------------------------|
|-----------------------------------|--------------------------|
|
|                                                  PM--|   PM|
|  E  E S E S  E  E  S   S   S   S     E  E S E S  S S S E S E
|-----------------------------------|--------------------------|
|-----------------------------------|--------------------------|
|--9--9-x-x-x--7--7-----<7>---------|--9--9-x-x-x--------7-----|
|--9--9-x-x-x--7--7-<7>---------<7>-|--9--9-x-x-x----7-9---9-7-|
|--7--7-x-x-x--5--5---------<7>-----|--7--7-x-x-x-10-----------|
|-----------------------------------|--------------------------|


  D5          A5          Bb5   C5   F5      C5
   E  E Q     E E Q       E E S  E S  E  E S  E S
|-12-12-------7-7-------|-8-8---10---15-15---10----||
|-12-12-------7-7-------|-8-8---10---15-15---10----||
|--9--9-------4-4-------|-5-5----7---12-12----7----||
|--9--9-------4-4-------|-5-5----7---12-12----7----||
|-----------------------|--------------------------||
|-----------------------|--------------------------||
|
|                             PM   PM      PM   PM
|  E  E S E S E E S E S   E E S  E S  E  E S  E S
|-----------------------|--------------------------||
|-----------------------|--------------------------||
|--9--9-x-x-x-4-4-x-x-x-|-5-5----7---12-12----7----||
|--9--9-x-x-x-4-4-x-x-x-|-5-5----7---12-12----7----||
|--7--7-x-x-x-2-2-x-x-x-|-3-3----5---10-10----5----||
|-----------------------|-----0----0-------0----0--||


                                              Main Theme
  D5                                           C5
  Gtrs III, IV
  PM-|       PM|       PM|       PM|            PM|         PM|         PM|         PM|
  S  S  S  S S S  S  S S S  S  S S S  S  S      S  S  S  S  S  S  S  S  S  S  S  S  S  S  S  S
|------------------------------------------||--------------------------------------------------|
|------12-12-----10-10---------------------||o-------------------------------------------------|
|-9--9-------9-9-------9-9-12-12-7-7-11-11-||--------14-14-------12-12-------------------------|
|------------------------------------------||--12-12-------12-12-------12-12-15-15-10-10-14-14-|
|------------------------------------------||o-------------------------------------------------|
|------------------------------------------||--------------------------------------------------|
|
| Gtrs I, II
|                                               PM----------------------------------------------
| Q          Q         H                        S  e     S  e     e     S  e     S  e     e
|------------------------------------------||--------------------------------------------------|
|------------------------------------------||o-------------------------------------------------|
|-9\---------------------------------------||--------------------------------------------------|
|-9\---------------------------------------||--------------------------------------------------|
|-7\---------------------------------------||o--0--0-----0--0-----0-----0--0-----0--0-----0----|
|------------------------------------------||---0--0-----0--0-----0-----0--0-----0--0-----0----|


   PM|         PM|         PM|
   S  S  S  S  S  S  S  S  S  S  S  S  S  S  S  S
|-------------------------------------------------|
|-------------------------------------------------|
|-------14-14-------12-12-------------------------|
|-12-12-------12-12-------10-10-15-15-14-14-------|
|-------------------------------------------15-15-|
|-------------------------------------------------|
|
|----------------------------------|         PM
|  S  e     S  e     e     S  S  S  S  S  S  E
|-------------------------------------------------|
|-------------------------------------------------|
|-------------------------------------------------|
|-------------------------------------------------|
|--0--0-----0--0-----0-----0--0--0--0--0--0-------|
|--0--0-----0--0-----0-----0--0--0--0--0--0-------|


  C5
   PM|         PM|         PM|         PM|
   S  S  S  S  S  S  S  S  S  S  S  S  S  S  S  S
|-------------------------------------------------|
|-------------------------------------------------|
|-------14-14-------12-12-------------------------|
|-12-12-------12-12-------12-12-15-15-------14-14-|
|-------------------------------------15-15-------|
|-------------------------------------------------|
|
|  PM----------------------------------------------
|  S  e     S  e     e     S  e     S  e     e
|-------------------------------------------------|
|-------------------------------------------------|
|-------------------------------------------------|
|-------------------------------------------------|
|--0--0-----0--0-----0-----0--0-----0--0-----0----|
|--0--0-----0--0-----0-----0--0-----0--0-----0----|


  G5                      G#5         Bb5
   PM|         PM|         PM
   S  S  S  S  S  S  S  S  S  S  S  S  S  S  S  S
|--------------------------------------------------||
|-------------------------------------------------o||
|-------12-12-------10-10----------------------17--||
|-10-10-------10-10----------12-14-15-12-14-15-----||
|-------------------------15----------------------o||
|--------------------------------------------------||
|
|----------------------------|         PM|
|  S  e     S  e     e     S  S  E     S  S  E
|--------------------------------------------------||
|-------------------------------------------------o||
|--------------------------------3-----------5-----||
|--2--2-----2--2-----2-----3--3--3-----5--5--5-----||
|--0--0-----0--0-----0-----1--1--1-----3--3--3----o||
|--------------------------------------------------||


 3rd Verse
    C5                                                         Eb/C
  Gtr IV
  E  s  E  s  E  S.   Q       S   S.   W
|---22----22----22-------------------|----------------------------------|
|------------------------------------|----------------------------------|
|---19----19----19-------------------|----------------------------------|
|------------------------------------|----------------------------------|
|------------------------------------|----------------------------------|
|------------------------------------|----------------------------------|
|
| Gtrs I, II
|    PM-------------------------|        PM--| ~~~~~~~~PM----|
| E  e.    e.    S  S   e S S   e      S S S S E   +S  S S S e S S S S
|------------------------------------|----------------------------------|
|------------------------------------|-------------------------6-6-6-6--|
|------------------------------------|-------------------------x-x-x-x--|
|------------------------------------|-------------------------7-7-7-7--|
|----0-----0-------------------------|-------------------------5-5-5-5--|
|----0-----0-----0--0---0-0-0---0----|---0-0-0-1b3r(1)-0-0-0-0----------|


  N.C.
  Gtr I
  PM----| ~~~~~~~~PM----------|     PM--|    PM----------|
  S S S S E   +S  S S S e S S e   S S S S E. S S S e S S e
|-------------------------------|--------------------------|
|-------------------------------|--------------------------|
|-------------------------------|--------------------------|
|-------------------------------|---2-2-2-2--2-2-2-2-3-3-3-|
|-------------------------------|--------------------------|
|-0-0-0-0-2b5r(2)-0-0-0-0-0-0-0-|--------------------------|
|
| Gtr II
| PM----| ~~~~~~~~PM----------|     PM--|    PM----------|
| S S S S E   +S  S S S e S S e   S S S S E. S S S e S S e
|-------------------------------|--------------------------|
|-------------------------------|--------------------------|
|-------------------------------|--------------------------|
|-------------------------------|--------------------------|
|-------------------------------|---0-0-0-0--0-0-0-0-1-1-1-|
|-0-0-0-0-2b5r(2)-0-0-0-0-0-0-0-|--------------------------|


    C5                                          D/B
  Gtrs I, II
    PM--------------|     PM--| ~~~~~~~~PM----|
  E e. e. S S e S S e   S S S S E   +S  S S S e S S S S
|---------------------|---------------------------------|
|---------------------|-------------------------5-5-5-5-|
|---------------------|-------------------------x-x-x-x-|
|---------------------|-------------------------6-6-6-6-|
|---0--0--------------|-------------------------4-4-4-4-|
|---0--0--0-0-0-0-0-0-|---0-0-0-1b3r(1)-0-0-0-0---------|


  N.C.
  Gtr I
  PM----|  ~~~ PM--------|     PM--|  ~~~PM~
  S S S S  Q   S S e S S e   S S S S  E. S E  S S S  S S  S
|--------------------------|--------------------------------||
|--------------------------|---------------------------8-10-||
|--------------------------|---------------9----7-9-10------||
|--------------------------|----------7------10-------------||
|---------[3]--------------|---0-0-0-----0------------------||
|-0-0-0-0------0-0-0-0-0-0-|--------------------------------||
|
| Gtr II
| PM----|  ~~~ PM--------|     PM--|  ~~~PM~
| S S S S  Q   S S e S S e   S S S S  E. S E  S S S  S S  S
|--------------------------|--------------------------------||
|--------------------------|---------------------------8-10-||
|--------------------------|---------------9----7-9-10------||
|--------------------------|---------[7]-----10-------------||
|---------[3]--------------|---0-0-0-----0------------------||
|-0-0-0-0------0-0-0-0-0-0-|--------------------------------||


 Chorus
  D5          C5            D5
  Gtr IV
   E  E Q      E  E Q        E  E Q     H
|-12-12-------10-10-------|-12-12-------------------|
|-12-12-------10-10-------|-12-12-------------------|
|--9--9--------7--7-------|--9--9-------------------|
|--9--9--------7--7-------|--9--9-------------------|
|-------------------------|-------------------------|
|-------------------------|-------------------------|
|
| Gtrs I, II
|                                       PM--|
|  E  E S E S  E  E S E S    E  E S E S S S S E S E
|-------------------------|-------------------------|
|-------------------------|-------------------------|
|--9--9-x-x-x--7--7-x-x-x-|--9--9-x-x-x-------------|
|--9--9-x-x-x--7--7-x-x-x-|--9--9-x-x-x-------0-----|
|--7--7-x-x-x--5--5-x-x-x-|--7--7-x-x-x---0-2---2-0-|
|-------------------------|-------------5-----------|


  D5          A5          Bb5   C5   F5      C5
   E  E Q     E E Q       E E S  E S  E  E S  E S
|-12-12-------7-7-------|-8-8---10---15-15---10-----|
|-12-12-------7-7-------|-8-8---10---15-15---10-----|
|--9--9-------4-4-------|-5-5----7---12-12----7-----|
|--9--9-------4-4-------|-5-5----7---12-12----7-----|
|-----------------------|---------------------------|
|-----------------------|---------------------------|
|
|                             PM   PM      PM   PM
|  E  E S E S E E S E S   E E S  E S  E  E S  E S
|-----------------------|---------------------------|
|-----------------------|---------------------------|
|--9--9-x-x-x-4-4-x-x-x-|-5-5--------12-12----------|
|--9--9-x-x-x-4-4-x-x-x-|-5-5----0---12-12----0-----|
|--7--7-x-x-x-2-2-x-x-x-|-3-3----0---10-10----0-----|
|-----------------------|-----0--0-0-------0--0-0---|


  D5          C5                      D5
   E  E Q      E  E  Q                 E  E Q      H
|-12-12-------10-10-----------------|-12-12--------------------|
|-12-12-------10-10-----------------|-12-12--------------------|
|--9--9--------7--7-----------------|--9--9--------------------|
|--9--9--------7--7-----------------|--9--9--------------------|
|-----------------------------------|--------------------------|
|-----------------------------------|--------------------------|
|
|                                                  PM--|   PM
|  E  E S E S  E  E  S   S   S   S     E  E S E S  S S S E S E
|-----------------------------------|--------------------------|
|-----------------------------------|--------------------------|
|--9--9-x-x-x--7--7-----<7>---------|--9--9-x-x-x--------7-----|
|--9--9-x-x-x--7--7-<7>---------<7>-|--9--9-x-x-x----7-9---9-7-|
|--7--7-x-x-x--5--5---------<7>-----|--7--7-x-x-x-10-----------|
|-----------------------------------|--------------------------|


  D5          A5          Bb5   C5   D5    F5
   E  E Q     E E Q       E E S  E S E E S E.
|-12-12-------7-7-------|-8-8---10--------------||
|-12-12-------7-7-------|-8-8---10---5-5---8----||
|--9--9-------4-4-------|-5-5----7---2-2---5----||
|--9--9-------4-4-------|-5-5----7---2-2---5----||
|-----------------------|-----------------------||
|-----------------------|-----------------------||
|
|                             PM   PM    PM
|  E  E S E S E E S E S   E E S  E S E E S E.
|-----------------------|-----------------------||
|-----------------------|-----------------------||
|--9--9-x-x-x-4-4-x-x-x-|-5-5-------------------||
|--9--9-x-x-x-4-4-x-x-x-|-5-5----0---2-2---5----||
|--7--7-x-x-x-2-2-x-x-x-|-3-3----0---2-2---5----||
|-----------------------|-----0--0-0-2-2-0-5----||


 Bridge
                      C5C#5   Eb5D5                      C5C#5   G#Bb5
  Gtr I
  PM|     PM|     PM|     PM|        PM|     PM|     PM|     PM|
  S S  E  S S  E  S S S S S S  S S   S S  E  S S  E  S S S S S S S S
|----------------------------------|----------------------------------|
|----------------------------------|----------------------------------|
|----------------------------------|----------------------------------|
|---------------------7S8-----10S9-|---------------------7S8-----3S5--|
|-----<5>-----<5>-----5S6------8S7-|-----<5>-----<5>-----5S6-----1S3--|
|-0-0-----0-0-----0-0-----0-0------|-0-0-----0-0-----0-0-----0-0------|
|
| Gtr II
| PM|     PM|                        PM|     PM|
| S S  E  S S  Q      S S E    S S   S S  E  S S  Q      S S E   S S
|----------------------------------|----------------------------------|
|----------------------------------|----------------------------------|
|----------------------------------|----------------------------------|
|---------------------7S8-----10S9-|---------------------7S8-----3S5--|
|---------------------5S6------8S7-|---------------------5S6-----1S3--|
|-0-0-----0-0----------------------|-0-0-----0-0----------------------|


                        C5C#5   Eb5D5                      C5C#5   G#Bb5
    Gtrs I, II
    PM|     PM|     PM|     PM|        PM|     PM|     PM|     PM|
    S S  E  S S  E  S S S S S S  S S   S S  E  S S  E  S S S S S S S S
||-----------------------------------|----------------------------------||
||o----------------------------------|---------------------------------o||
||-----------------------------------|----------------------------------||
||----------------------7S8-----10S9-|---------------------7S8-----3S5--||
||o-----<5>-----<5>-----5S6------8S7-|-----<5>-----<5>-----5S6-----1S3-o||
||--0-0-----0-0-----0-0-----0-0------|-0-0-----0-0-----0-0-----0-0------||


  N.C.
  Gtrs I, II
  PM--|   PM--|   PM|     PM|       PM--|   PM--|   PM|     PM|
  S S S S S S S S S S S S S S S S   S S S S S S S S S S S S S S S S
|---------------------------------|---------------------------------|
|---------------------------------|---------------------------------|
|---------------------------------|---------------------------------|
|-------2-------2-----2h5---------|-------2-------2-----2h5-----5p2-|
|-----------------------------3h6-|---------------------------------|
|-2-2-2---2-2-2---2-2-----2-2-----|-2-2-2---2-2-2---2-2-----2-0-----|


  N.C.                                                  EbF5  C5D5
  PM--|   PM--|   PM|     PM|       PM--|   PM--|   PM|
  S S S S S S S S S S S S S S S S   S S S S S S S S S S S e S S S
|---------------------------------|--------------------------------||
|---------------------------------|--------------------------------||
|---------------------------------|---------------------5S7--------||
|-------2-------2-----2h5---------|-------2-------2-----3S5---7S9--||
|-----------------------------3h6-|---------------------------5S7--||
|-2-2-2---2-2-2---2-2-----2-2-----|-2-2-2---2-2-2---2-2------------||


   Interlude
    N.C.
    Gtrs III, IV
     S S S  S  S S S  S  S S  S S  S  S  S  S
||--12-7-0-10-12-0-0-10-12-0-19-0-17-14----14-|
||o-------------------------------------15----|
||--------------------------------------------|
||--------------------------------------------|
||o-------------------------------------------|
||--------------------------------------------|
|
|   Gtrs I, II
|    PM--------------------|       PM|
|    S S S  S  S S S  S  S S  S S  S  S  S  S
||--------------------------------------------|
||o-------------------------------------------|
||--------------------------------------------|
||----------------------------2h5-------------|
||o--------------------------------------3h=6-|
||---2-2-2--2--2-2-2--2--2-2-------2--2-------|


   S S S  S  S S S  S  S S  S S  S  S  S  S
|-12-7-0-10-12-0-0-10-12-0-19-0-17-14----14-|
|-------------------------------------15----|
|-------------------------------------------|
|-------------------------------------------|
|-------------------------------------------|
|-------------------------------------------|
|
|  PM--------------------|       PM|
|  S S S  S  S S S  S  S S  S S  S  S  S  S
|-------------------------------------------|
|-------------------------------------------|
|-------------------------------------------|
|-------------------------------------------|
|---------------------------3h6--------1h=4-|
|--2-2-2--2--2-2-2--2--2-2-------2--2-------|


  N.C.
   S  S S  S  S  S  S  S  S  S  S  S  S  S  S  S
|-12-10-0-14-12-10-14-12-14-17-12-17-14-12-10-14-|
|------------------------------------------------|
|------------------------------------------------|
|------------------------------------------------|
|------------------------------------------------|
|------------------------------------------------|
|
|  PM-----------------------|         PM|
|  S  S S  S  S  S  S  S  S  S  S  S  S  S  S  S
|------------------------------------------------|
|------------------------------------------------|
|------------------------------------------------|
|-------------------------------2h=5--------1h=4-|
|------------------------------------------------|
|--0--0-0--0--0--0--0--0--0--0--------0--0-------|


 1.                                               2.
   S S S  S  S S S  S  S  S  S  S  S  S  S  S      S S S  S  S S S  S  S  S  S  S  S  S  S  S
|-12-7-0-10-12-0-0-14-17-14-------14-11--------||-12-7-0-10-12-0-0-14-17-14-------14-11-------|
|---------------------------16----------13----o||---------------------------16----------13----|
|------------------------------17----------14--||------------------------------17----------14-|
|----------------------------------------------||---------------------------------------------|
|---------------------------------------------o||---------------------------------------------|
|----------------------------------------------||---------------------------------------------|
|
|  PM--------------------------|                   PM--------------------------------------|
|  S S S  S  S S S  S  S  S  S  S  S  S  S  S      S S S  S  S S S  S  S  S  S  S  S  S  S  S
|----------------------------------------------||---------------------------------------------|
|---------------------------------------------o||---------------------------------------------|
|----------------------------------------------||---------------------------------------------|
|----------------------------------------------||---------------------------------------------|
|----------------------------------2--2--2--2-o||----------------------2--2--2--2--2--2--2--2-|
|--2-2-2--2--2-2-2--2--4--4--4--4--------------||--2-2-2--2--2-2-2--2-------------------------|


  N.C.
  Gtrs III, IV
                      |-----6------|  |------6-------|
   S S  S  S S S S S  S S  S S  S  S  S  S  S  S  S  S
|-11-8-------8-5--------8h11p8----------11h14p11-------|
|------10--------7---10--------10----13----------13----|
|---------11-------8--------------11----------------14-|
|------------------------------------------------------|
|------------------------------------------------------|
|------------------------------------------------------|
|
| Gtrs I, II
|  PM--------------|  TP
|  S S  S  S S S S S  H
|------------------------------------------------------|
|------------------------------------------------------|
|------------------------------------------------------|
|------------------------------------------------------|
|--2-2--2--2-2-2-2-2--2--------------------------------|
|------------------------------------------------------|


                                              A5
 4/4
                                               ~~~~~
    |------6-------|   |------6-------|
    S  S  S  S  S  S   S  S  S  S  S  S  a  a  Q     Q
|-----14h17p14-----------17h20p17----------17-20b23-----||
|-/16----------16----/19----------19----19--------------||
|-----------------17-----------------20-----------------||
|-------------------------------------------------------||
|-------------------------------------------------------||
|-------------------------------------------------------||
|
|                                             Gtr I
|   TP
|   H                                          Q     Q
|-------------------------------------------------------||
|-------------------------------------------------------||
|-------------------------------------------------------||
|----------------------------------------------4--------||
|---2------------------------------------------2--------||
|-------------------------------------------------------||


                      C5C#5   Eb5D5                      C5C#5   G#Bb5
 4/4
  Gtrs I, II
  PM|     PM|     PM|     PM|        PM|     PM|     PM|     PM|
  S S  E  S S  E  S S S S S S  S S   S S  E  S S  E  S S S S S S S S
|----------------------------------|---------------------------------|
|----------------------------------|---------------------------------|
|----------------------------------|---------------------------------|
|---------------------7S8-----10S9-|---------------------7S8-----3S5-|
|---------------------5S6------8S7-|---------------------5S6-----1S3-|
|-0-0-<5>-0-0-<4>-0-0-----0-0------|-0-0-<5>-0-0-<3>-0-0-----0-0-----|


                      C5C#5   Eb5D5                      C5C#5   G#Bb5
  PM|     PM|     PM|     PM|        PM|     PM|     PM|     PM|
  S S  E  S S  E  S S S S S S  S S   S S  E  S S  E  S S S S S S S S
|----------------------------------|----------------------------------||
|----------------------------------|----------------------------------||
|----------------------------------|----------------------------------||
|---------------------7S8-----10S9-|-------------<5>-----7S8-----3S5--||
|---------------------5S6------8S7-|-----<5>-------------5S6-----1S3--||
|-0-0-<5>-0-0-<3>-0-0-----0-0------|-0-0-----0-0-----0-0-----0-0------||


 Guitar Solo
                                   C5C#5        Eb5  D5
  Gtr III
  PM----------| ~   PM-----------| ~~
  |-----6-----|     |-----6------|     |-------6-------|
  S S   S S S S E   S S S  S S   S E   S S    S  S S   S
|--------------------------------------------------------|
|----------------------------------6-------------6-7---9-|
|---------------5---2-4-5-/4-5---7-----7-9---10----------|
|-3-5---6-3-4-6------------------------------------------|
|--------------------------------------------------------|
|--------------------------------------------------------|
|
| Gtrs I, II
| PM---------------------------|       PM--|
| S   S   e     S S e      S   S   S S S   S     S   S
|--------------------------------------------------------|
|--------------------------------------------------------|
|--------------------------------------------------------|
|----------------------------------7S8----------10S==9---|
|----------------------------------5S6-----------8S==7---|
|-0---0---0-----0-0-0------0---0-------0---0-------------|


                                                     C5 C#5           G#5 Bb5
                                                                        ~~~~~~~~
    T  T  T  T T T T T  S T T  T  T  T  T  T  T  T T  S  T T  E        +S  +S
|----------------------------------------------------13-13-0-15b16====(15)(15)r--|
|-/10-10-10-10-8-8-0-0-12-0-0-15-15-15-15-15-14-12-0-----------------------------|
|--------------------------------------------------------------------------------|
|--------------------------------------------------------------------------------|
|--------------------------------------------------------------------------------|
|--------------------------------------------------------------------------------|
|
|   PM------------------------------------------|             PM----|
|   S     S    e        S S    e           S     S    S  S    S     S   S   S
|--------------------------------------------------------------------------------|
|--------------------------------------------------------------------------------|
|--------------------------------------------------------------------------------|
|-----------------------------------------------------7S=8--------------3S==5----|
|-----------------------------------------------------5S=6--------------1S==3----|
|---0-----0----0--------0-0----0-----------0-----0------------0-----0------------|


                                                                    CC#5                  ED5
    |----------3-----------|  |-------3--------|  |--------3---------|  |--------3---------|
   +S      +S     S  S  S  S  S  S    S  S  S  S  S  S    S  S  S    S  S  S    S  S  S    S
|-(15)b16r(15)p==13----------16-15---13----------16-15---13------------16-15---13------------|
|-------------------16-15-13------------16-15-13------------16-15---13------------16-15---13-|
|--------------------------------------------------------------------------------------------|
|--------------------------------------------------------------------------------------------|
|--------------------------------------------------------------------------------------------|
|--------------------------------------------------------------------------------------------|
|
|   PM-------------------------------------------------|                PM---|
|   S          S     e        S    S     e        S    S     S    S     S    S     S    S
|--------------------------------------------------------------------------------------------|
|--------------------------------------------------------------------------------------------|
|--------------------------------------------------------------------------------------------|
|------------------------------------------------------------7S===8---------------10S===9----|
|------------------------------------------------------------5S===6----------------8S===7----|
|---0----------0-----0--------0----0-----0--------0----0----------------0----0---------------|


                                             C5    C#5   G#Bb5
                                              ~~~~~
    S      +S   S  S     +S   S  E     +E     Q.
|--------------20------------20--------------24b25-----------|
|-[19]b21-(19)----19b21-(19)----19b21-(19)-------------------|
|------------------------------------------------------------|
|------------------------------------------------------------|
|------------------------------------------------------------|
|------------------------------------------------------------|
|
|   PM-------------------------------------|         PM|
|   S       S   e         S   S  e      S  S  S    S S S S S
|------------------------------------------------------------|
|------------------------------------------------------------|
|------------------------------------------------------------|
|---------------------------------------------7S===8-----3S5-|
|---------------------------------------------5S===6-----1S3-|
|---0-------0---0---------0---0--0------0--0---------0-0-----|


                                                      C5    C#5           Eb5D5
   |-------6--------|   |-------6--------|  |--------6---------|
   S  S    S  S  S  S   S  S    S  S  S  S  S  S    S  S  S    S  a  S  S  S  S
|------------------------------15-18p15------------15-18p15---15-15s18-15s18----|
|-------------------------17------------17----17--------------------------------|
|---------12-15p12----/18------------------18-----------------------------------|
|----14------------14--------------------------------------------------------20-|
|-16----------------------------------------------------------------------------|
|-------------------------------------------------------------------------------|
|
|  PM--------------------------------------------|                   PM|
|  S    S     e         S    S     e        S    S     S    S        S  S  S  S
|-------------------------------------------------------------------------------|
|-------------------------------------------------------------------------------|
|-------------------------------------------------------------------------------|
|------------------------------------------------------7S===8-------------10S=9-|
|------------------------------------------------------5S===6--------------8S=7-|
|--0----0-----0---------0----0-----0--------0----0-------------------0--0-------|


                                              C5     C#5      G#5     Bb5
   |-------6--------|  |---3---|
   S  S    S  S  S  S  S  S    S  E     +E     E        +E     +S      +S
|-----------------------------19--------------24b26====(24)r==(24)b26-(24)---|
|------------------17----21------22b24-(22)----------------------------------|
|---------18----18----20-----------------------------------------------------|
|----20------20--------------------------------------------------------------|
|-21-------------------------------------------------------------------------|
|----------------------------------------------------------------------------|
|
|  PM---------------------------------------|            PM-|
|  S    S     e        S    S     e      S  S  S     S   S  S   S       S
|----------------------------------------------------------------------------|
|----------------------------------------------------------------------------|
|----------------------------------------------------------------------------|
|----------------------------------------------7S====8----------3S======5----|
|----------------------------------------------5S====6----------1S======3----|
|--0----0-----0--------0----0-----0------0--0------------0--0----------------|


                                 C5  C#5      Eb5 D5
    TP     TP   TP     TP   TP     TP    TP     TP
    E      E    E      E    E      E     E      E
|--20-----17---18----------17-----------15----------|
|---------------------20----------18-----------17---|
|-(21)---(17)-(19)--------(17)---------(15)---------|
|--------------------(20)--------(19)---------(17)--|
|---------------------------------------------------|
|---------------------------------------------------|
|
|   PM-------------------------|         PM-|
|   S  S   e    S  S   e    S  S   S S   S  S   S S
|---------------------------------------------------|
|---------------------------------------------------|
|---------------------------------------------------|
|----------------------------------7S8---------10S9-|
|----------------------------------5S6----------8S7-|
|---0--0---0----0--0---0----0--0---------0--0-------|


                                                  C5    C#5             G#5   Bb5
   |------6------|  |-------6--------|  |--------6---------|  |--------6---------|
   E    S  S  S  S  S  S    S  S  S  S  S  S    S  S  S    S  S  S    S  S  S    S
|------------------------------------------------------------------------------------||
|-18---17p15-------------------------------------------------------------------------||
|------------17p15p14----------------------------------------------------------------||
|---------------------14h==15h17p15p14-----------------------------------------------||
|--------------------------------------17p15p==14s12-14h==15h17p15p==14--------------||
|-----------------------------------------------------------------------17p15p==14---||
|
|  PM----------------------------------------|                PM---|
|  S S     e        S    S     e        S    S     S    S     S    S     S    S
|------------------------------------------------------------------------------------||
|------------------------------------------------------------------------------------||
|------------------------------------------------------------------------------------||
|--------------------------------------------------7S===8----------------3S===5------||
|--------------------------------------------------5S===6----------------1S===3------||
|--0-0-----0--------0----0-----0--------0----0----------------0----0-----------------||


 Keyboard Solo
                                               C5   C#5             Eb5   D5
  Gtr V
   |-----6------|   |------6-------|  |-------6--------|  |--------6---------|
   S S   S  S S S   S   S   S  S S S  S  S   S  S S    S  S  S    S  S  S    S
|--------5-10-5-------------7-12-7-----------8-13-8--------------10-15-10------|
|----7----------7-------9----------9----10------------10----12--------------12-|
|--7----------------9----------------10------------------12--------------------|
|------------------------------------------------------------------------------|
|------------------------------------------------------------------------------|
|------------------------------------------------------------------------------|
|
| Gtr III
|  Q               +Q                 H
|------------------------------------------------------------------------------|
|------------------------------------------------------------------------------|
|------------------------------------------------------------------------------|
|------------------------------------------------------------------------------|
|------------------------------------------------------------------------------|
|-12--------------(12)\--------------------------------------------------------|
|
| Gtrs I, II
|  PM--------------------------------------|              PM---|
|  S   S    e       S     S    e      S    S    S   S     S    S     S    S
|------------------------------------------------------------------------------|
|------------------------------------------------------------------------------|
|------------------------------------------------------------------------------|
|-----------------------------------------------7S==8---------------10S===9----|
|-----------------------------------------------5S==6----------------8S===7----|
|--0---0----0-------0-----0----0------0----0--------------0----0---------------|


                                                     C5    C#5             G#5   Bb5
   |-------6--------|  |-------6--------|  |--------6---------|  |--------6---------|
   S  S    S  S  S  S  S  S    S  S  S  S  S  S    S  S  S    S  S  S    S  S  S    S
|---------12-17-12------------14-19-14------------15-20-15--------------17-22-17---------|
|----13------------13----15------------15----16--------------16----18--------------18----|
|-14------------------16------------------17--------------------19-----------------------|
|----------------------------------------------------------------------------------------|
|----------------------------------------------------------------------------------------|
|----------------------------------------------------------------------------------------|
|
|  W
|----------------------------------------------------------------------------------------|
|----------------------------------------------------------------------------------------|
|----------------------------------------------------------------------------------------|
|----------------------------------------------------------------------------------------|
|----------------------------------------------------------------------------------------|
|----------------------------------------------------------------------------------------|
|
|  PM-------------------------------------------|                PM---|
|  S    S     e        S    S     e        S    S     S    S     S    S     S    S
|----------------------------------------------------------------------------------------|
|----------------------------------------------------------------------------------------|
|----------------------------------------------------------------------------------------|
|-----------------------------------------------------7S===8----------------3S===5-------|
|-----------------------------------------------------5S===6----------------1S===3-------|
|--0----0-----0--------0----0-----0--------0----0----------------0----0------------------|


                                                     C5    C#5             Eb5   D5
  Gtr V
   |-------6--------|  |-------6--------|  |--------6---------|  |--------6---------|
   S  S    S  S  S  S  S  S    S  S  S  S  S  S    S  S  S    S  S  S    S  S  S    S
|---------16-------19----20---21-24-25-28-29-25---28-26-24---22-24-22---20------------|
|----18---------21----22---------------------------------------------------22-20---22-|
|-17---------20-----------------------------------------------------------------------|
|-------------------------------------------------------------------------------------|
|-------------------------------------------------------------------------------------|
|-------------------------------------------------------------------------------------|
|
| Gtrs I, II
|  PM-------------------------------------------|                PM---|
|  S    S     e        S    S     e        S    S     S    S     S    S     S    S
|-------------------------------------------------------------------------------------|
|-------------------------------------------------------------------------------------|
|-------------------------------------------------------------------------------------|
|-----------------------------------------------------7S===8---------------10S===9----|
|-----------------------------------------------------5S===6----------------8S===7----|
|--0----0-----0--------0----0-----0--------0----0----------------0----0---------------|


                                                C5 C#5      G#5Bb5
   |-------6--------|  |-------6--------|
   S  S    S  S  S  S  S  S    S  S  S  S  S  S  S  S  S  S  S  S
|------------------------------------------------------------------|
|-23-20---22-20-19-17------------------------------17-18-20-15-20--|
|---------------------20-19---17----------17-19-20-----------------|
|--------------------------------20-15-17--------------------------|
|------------------------------------------------------------------|
|------------------------------------------------------------------|
|
|  PM----------------------------------------|         PM|
|  S    S     e        S    S     e        S  S  S  S  S  S  S  S
|------------------------------------------------------------------|
|------------------------------------------------------------------|
|------------------------------------------------------------------|
|------------------------------------------------7S=8--------3S=5--|
|------------------------------------------------5S=6--------1S=3--|
|--0----0-----0--------0----0-----0--------0--0--------0--0--------|


                                               C5         C#5            Eb5D5
   Q           +S      +s   T  T  T  T  E       +E           +T   +T   S  S  S
|--------------------------------------17b19r==(17)b19.5====(17)r(17)-18-20-21-|
|-16b18.5r====(16)b19-(16)-19-22p20p19-----------------------------------------|
|------------------------------------------------------------------------------|
|------------------------------------------------------------------------------|
|------------------------------------------------------------------------------|
|------------------------------------------------------------------------------|
|
|  PM----------------------------------------|                PM------|
|  S      S e   S       S   e           S    S   S        S   S        S  S  S
|------------------------------------------------------------------------------|
|------------------------------------------------------------------------------|
|------------------------------------------------------------------------------|
|------------------------------------------------7S=======8--------------10S=9-|
|------------------------------------------------5S=======6---------------8S=7-|
|--0------0-0---0-------0---0-----------0----0----------------0--------0-------|


                                 C5C#5       G#5Bb5
    S  S  S  S  S  S  S  S  S  E     S  S  S  S  S
|-/25----27----25----------20-25---/27-25-23--------|
|-----26----26----26-25-23-------------------26-25--|
|---------------------------------------------------|
|---------------------------------------------------|
|---------------------------------------------------|
|---------------------------------------------------|
|
|   PM------------------------|         PM|
|   S  S  e     S  S  e     S  S S   S  S  S  S  S
|---------------------------------------------------|
|---------------------------------------------------|
|---------------------------------------------------|
|--------------------------------7S==8--------3S=5--|
|--------------------------------5S==6--------1S=3--|
|---0--0--0-----0--0--0-----0--0--------0--0--------|


                                           C5    C#5EbD5
   |---3---|
   S  S    S  S  S  S  S  S  S  S  S  S  S  S  S  S  S
|-19-20---22-24-22-27-24-22-20-------------------------|
|------------------------------23-22----24----22-------|
|------------------------------------22----22----20-22-|
|------------------------------------------------------|
|------------------------------------------------------|
|------------------------------------------------------|
|
|  PM-----------------------------|         PM|
|  S    S     e     S  S  e     S  S  S  S  S  S  S  S
|------------------------------------------------------|
|------------------------------------------------------|
|------------------------------------------------------|
|-------------------------------------7S=8-------10S=9-|
|-------------------------------------5S=6--------8S=7-|
|--0----0-----0-----0--0--0-----0--0--------0--0-------|


                                 C5 C#5      G#5Bb5
   S  S  S  S  S  S  S  S  S   S  S  S  S  S  S  S
|-----------------------------------------21--------||
|-------17-------------17-19-/22-20-22-24----22-24--||
|-20-19----19-17-19-20------------------------------||
|---------------------------------------------------||
|---------------------------------------------------||
|---------------------------------------------------||
|
|  PM------------------------|          PM|
|  S  S  e     S  S  e     S   S  S  S  S  S  S  S
|---------------------------------------------------||
|---------------------------------------------------||
|---------------------------------------------------||
|---------------------------------7S=8--------3S=5--||
|---------------------------------5S=6--------1S=3--||
|--0--0--0-----0--0--0-----0---0--------0--0--------||


 Pre-Chorus
  G#5        G5                             Eb/C
  Gtr V
   ~~~~~~~~~
   Q   +Q    H      W
|-----------------|-----------------------------|
|-23--(23)\-------|-----------------------------|
|-----------------|-----------------------------|
|-----------------|-----------------------------|
|-----------------|-----------------------------|
|-----------------|-----------------------------|
|
| Gtr IV
|  H         H      H               Q       E E
|--6---------5----|-----------------------------|
|--6---------5----|-------------------------6-6-|
|--3---------2----|-------------------------7-7-|
|--3---------2----|-------------------------7-7-|
|-----------------|-------------------------5-5-|
|-----------------|-----------------------------|
|
| Gtrs I, II
|                   PM|     PM|     PM----|
|  H         H      S S  E  S S  E  S S S S E E
|-----------------|-----------------------------|
|-----------------|-------------------------6-6-|
|--3---------2----|-------------------------x-x-|
|--3---------2----|-------------------------7-7-|
|--1---------0----|-----<5>-----<5>---------5-5-|
|-----------------|-0-0-----0-0-----0-0-0-0-----|


  F5   G#5                              Eb/C
  Gtr IV
  H     H      H                Q       E E
|------------|------------------------------|
|-8----11----|--------------------------6-6-|
|-7----10----|--------------------------7-7-|
|-5-----8----|--------------------------7-7-|
|-5-----8----|--------------------------5-5-|
|------------|------------------------------|
|
| Gtr I
|              PM|     PM|      PM----|
| H     H      S S S S S S  S S S S S S E E
|------------|------------------------------|
|------------|--------------------------6-6-|
|------------|--------------------------x-x-|
|-5-----8----|--------------------------7-7-|
|-5-----8----|-----7h8-----10p8---------5-5-|
|-5-----8----|-0-0-----0-0------0-0-0-0-----|
|
| Gtr II
|              PM|     PM|      PM----|
| H     H      S S S S S S  S S S S S S E E
|------------|------------------------------|
|------------|--------------------------6-6-|
|------------|--------------------------x-x-|
|-5-----8----|--------------------------7-7-|
|-5-----8----|-----7h8------7h8---------5-5-|
|-5-----8----|-0-0-----0-0------0-0-0-0-----|


  Bb5  A5                             E/C#
  H    H      H               Q       E E
|-8----7----|-----------------------------|
|-8----7----|-------------------------7-7-|
|-5----4----|-------------------------8-8-|
|-5----4----|-------------------------8-8-|
|-----------|-------------------------6-6-|
|-----------|-----------------------------|
|
| Gtrs I, II
|             PM|     PM|     PM----|
| H    H      S S  E  S S  E  S S S S E E
|-----------|-----------------------------|
|-----------|-------------------------7-7-|
|-5----4----|-------------------------x-x-|
|-5----4----|-----<3>-----<3>---------8-8-|
|-3----2----|-------------------------6-6-|
|-----------|-0-0-----0-0-----0-0-0-0-----|


  G5                       A5
  Gtr III
    S  S  S  S  S  S  S  S  S  S  S  S  S  S  S  S
|-----15-14-15-12-15-10-15----15-14-15-12-15-10-15-|
|-/10----------------------12----------------------|
|--------------------------------------------------|
|--------------------------------------------------|
|--------------------------------------------------|
|--------------------------------------------------|
|
| Gtr IV
|   H                       H
|--------------------------------------------------|
|---5-----------------------7----------------------|
|---2-----------------------4----------------------|
|---2-----------------------4----------------------|
|--------------------------------------------------|
|--------------------------------------------------|
|
| Gtrs I, II
|   H                       H
|--------------------------------------------------|
|--------------------------------------------------|
|---2-----------------------4----------------------|
|---2-----------------------4----------------------|
|---0-----------------------2----------------------|
|--------------------------------------------------|


  Bb5                     C5           A5
   S  S  S  S  S  S  S  S   S  S  S  S  S  S  S  S
|----15-14-15-12-15-10-15-/17-14-------19-14-------||
|-13-----------------------------15----------15----||
|-----------------------------------16----------16-||
|--------------------------------------------------||
|--------------------------------------------------||
|--------------------------------------------------||
|
|  H                        H
|--------------------------------------------------||
|--8-----------------------------------------------||
|--5-----------------------------------------------||
|--5-----------------------------------------------||
|--------------------------------------------------||
|--------------------------------------------------||
|
|  H                        S  e     S  S  e     S
|--------------------------------------------------||
|--------------------------------------------------||
|--5------------------------7--7--------4--4-------||
|--5------------------------7--7--------4--4-------||
|--3------------------------5--5--------2--2-------||
|--------------------------------------------------||


 Chorus
  D5          C5            D5
  Gtr IV
   E  E Q      E  E Q        E  E Q     H
|-12-12-------10-10-------|-12-12-------------------|
|-12-12-------10-10-------|-12-12-------------------|
|--9--9--------7--7-------|--9--9-------------------|
|--9--9--------7--7-------|--9--9-------------------|
|-------------------------|-------------------------|
|-------------------------|-------------------------|
|
| Gtrs I, II
|                                       PM--|
|  E  E S E S  E  E S E S    E  E S E S S S S E S E
|-------------------------|-------------------------|
|-------------------------|-------------------------|
|--9--9-x-x-x--7--7-x-x-x-|--9--9-x-x-x-------------|
|--9--9-x-x-x--7--7-x-x-x-|--9--9-x-x-x-------0-----|
|--7--7-x-x-x--5--5-x-x-x-|--7--7-x-x-x---0-2---2-0-|
|-------------------------|-------------5-----------|


  D5          A5          Bb5   C5   F5      C5
   E  E Q     E E Q       E E S  E S  E  E S  E S
|-12-12-------7-7-------|-8-8---10---15-15---10-----|
|-12-12-------7-7-------|-8-8---10---15-15---10-----|
|--9--9-------4-4-------|-5-5----7---12-12----7-----|
|--9--9-------4-4-------|-5-5----7---12-12----7-----|
|-----------------------|---------------------------|
|-----------------------|---------------------------|
|
|                             PM   PM      PM   PM
|  E  E S E S E E S E S   E E S  E S  E  E S  E S
|-----------------------|---------------------------|
|-----------------------|---------------------------|
|--9--9-x-x-x-4-4-x-x-x-|-5-5--------12-12----------|
|--9--9-x-x-x-4-4-x-x-x-|-5-5----0---12-12----0-----|
|--7--7-x-x-x-2-2-x-x-x-|-3-3----0---10-10----0-----|
|-----------------------|-----0--0-0-------0--0-0---|


  D5          C5                      D5
   E  E Q      E  E  Q                 E  E Q      H
|-12-12-------10-10-----------------|-12-12--------------------|
|-12-12-------10-10-----------------|-12-12--------------------|
|--9--9--------7--7-----------------|--9--9--------------------|
|--9--9--------7--7-----------------|--9--9--------------------|
|-----------------------------------|--------------------------|
|-----------------------------------|--------------------------|
|
|                                                  PM--|   PM
|  E  E S E S  E  E  S   S   S   S     E  E S E S  S S S E S E
|-----------------------------------|--------------------------|
|-----------------------------------|--------------------------|
|--9--9-x-x-x--7--7-----<7>---------|--9--9-x-x-x--------7-----|
|--9--9-x-x-x--7--7-<7>---------<7>-|--9--9-x-x-x----7-9---9-7-|
|--7--7-x-x-x--5--5---------<7>-----|--7--7-x-x-x-10-----------|
|-----------------------------------|--------------------------|


  D5          A5          Bb5   C5   F5      C5
   E  E Q     E E Q       E E S  E S  E  E S  E.
|-12-12-------7-7-------|-8-8---10---15-15---10----|
|-12-12-------7-7-------|-8-8---10---15-15---10----|
|--9--9-------4-4-------|-5-5----7---12-12----7----|
|--9--9-------4-4-------|-5-5----7---12-12----7----|
|-----------------------|--------------------------|
|-----------------------|--------------------------|
|
|                             PM   PM      PM
|  E  E S E S E E S E S   E E S  E S  E  E S  E.
|-----------------------|--------------------------|
|-----------------------|--------------------------|
|--9--9-x-x-x-4-4-x-x-x-|-5-5----7---12-12----7----|
|--9--9-x-x-x-4-4-x-x-x-|-5-5----7---12-12----7----|
|--7--7-x-x-x-2-2-x-x-x-|-3-3----5---10-10----5----|
|-----------------------|-----0----0-------0-------|


 Outro
  D5
  Gtr IV
   E   E  E  E  E  E  E    E    E   E  E    E  E  E  E    E
|--------19-19-------17---17-|------------------------------|
|-17--17-------17-17---------|-17--17-20---20-15-15-19---19-|
|----------------------------|------------------------------|
|----------------------------|------------------------------|
|----------------------------|------------------------------|
|----------------------------|------------------------------|
|
| Gtr I
|                     \1/              \1/
|  H.                +Q        +Q     +H            +Q
|----------------------------|------------------------------|
|----------------------------|------------------------------|
|----------------------------|------------------------------|
|--2-----------------(2)-----|-(2)----(2)-----------(2)\----|
|--2-----------------(2)-----|-(2)----(2)-----------(2)\----|
|--2-----------------(2)-----|-(2)----(2)-----------(2)\----|
|
| Gtr II
|                     \1/              \1/
|  H.                +Q        +Q     +H            +Q
|----------------------------|------------------------------|
|----------------------------|------------------------------|
|--9-----------------(9)-----|-(9)----(9)-----------(9)\----|
|--9-----------------(9)-----|-(9)----(9)-----------(9)\----|
|--7-----------------(7)-----|-(7)----(7)-----------(7)\----|
|----------------------------|------------------------------|


   E  E  E  E  E  E  E  E   S S S S S S S S S Q  +E  +S
|-------19-19-------17-17-|-------------------------------|
|-17-17-------17-17-------|-------------------------------|
|-------------------------|-9-9-9-9---9-9-9-9-9--(9)-(9)--|
|-------------------------|-------------------------------|
|-------------------------|-7-7-7-7---7-7-7-7-7--(7)-(7)--|
|-------------------------|-2-2-2-2---2-2-2-2-2--(2)-(2)--|
|
|  PM|                      PM--------------|
|  E  E  Q     H            S S S e   S S S S Q  +E  +S
|-------------------------|-------------------------------|
|-------------------------|-------------------------------|
|-------------------------|-------------------------------|
|--2--2-------------------|-2-2-2-2---2-2-2-2-2--(2)-(2)--|
|--2--2-------------------|-2-2-2-2---2-2-2-2-2--(2)-(2)--|
|--2--2-------------------|-2-2-2-2---2-2-2-2-2--(2)-(2)--|
|
|  PM|                      PM--------------|
|  E  E  Q     H            S S S e   S S S S Q  +E  +S
|-------------------------|-------------------------------|
|-------------------------|-------------------------------|
|-------------------------|-------------------------------|
|--2--2-------------------|-2-2-2-2---2-2-2-2-2--(2)-(2)--|
|--2--2-------------------|-2-2-2-2---2-2-2-2-2--(2)-(2)--|
|--2--2-------------------|-2-2-2-2---2-2-2-2-2--(2)-(2)--|


  D5
  +W               +W           +W           +W
|----------------|------------|------------|--------*|
|----------------|------------|------------|--------*|
|-(9)------------|-(9)--------|-(9)--------|-(9)----*|
|----------------|------------|------------|--------*|
|-(7)------------|-(7)--------|-(7)--------|-(7)----*|
|-(2)------------|-(2)--------|-(2)--------|-(2)----*|
|
| Gtrs I, II
|  /1____________________________/
| +Q    +H.        +W           +W           +W
|----------------|------------|------------|--------*|
|----------------|------------|------------|--------*|
|----------------|------------|------------|--------*|
|-(2)---(2)------|-(2)--------|-(2)--------|-(2)----*|
|-(2)---(2)------|-(2)--------|-(2)--------|-(2)----*|
|-(2)---(2)------|-(2)--------|-(2)--------|-(2)----*|



Duration Legend
---------------
W - whole; H - half; Q - quarter; E - 8th; S - 16th; T - 32nd; X - 64th; a - acciaccatura
+ - note tied to previous; . - note dotted; .. - note double dotted
Uncapitalized letters represent notes that are staccato (1/2 duration)
Irregular groupings are notated above the duration line
Duration letters will always appear directly above the note/fret number it represents the
duration for.  Duration letters with no fret number below them represent rests.  Multi-
bar rests are notated in the form Wxn, where n is the number of bars to rest for.  Low
melody durations appear below the staff

Tablature Legend
----------------
 h   - hammer-on
 p   - pull-off
 b   - bend
 pb  - pre-bend
 r   - bend release (if no number after the r, then release immediately)
 /\  - slide into or out of (from/to "nowhere")
 s   - legato slide
 S   - shift slide
 - natural harmonic
[n]  - artificial harmonic
n(n) - tapped harmonic
 ~   - vibrato
 tr  - trill
 T   - tap
 TP  - trem. picking
 PM  - palm muting
\n/  - tremolo bar dip; n = amount to dip
 \n  - tremolo bar down
 n/  - tremolo bar up
/n\  - tremolo bar inverted dip
 =   - hold bend; also acts as connecting device for hammers/pulls
 <> - volume swell (louder/softer)
 x   - on rhythm slash represents muted slash
 o   - on rhythm slash represents single note slash

Misc Legend
-----------
 |  - bar
||  - double bar
||o - repeat start
o|| - repeat end
*|  - double bar (ending)
 :  - bar (freetime)
 $  - Segno
 &  - Coda
Tempo markers -  = BPM(8/16=s8/s16), where s8 = swing 8ths, s16 = swing 16ths

comments
print report bad tab
4 comments total. Showing first comments.
0 reply
Binnsie_Jams wrote on March 29 2009, 01:15 am

so stuffed up

0 reply
antitrop wrote on February 5 2010, 07:30 pm

This tab is so perfect that it sucks.

There is no reasonable way to play this when he's tabbing out 5 different guitar parts.

This tab can only be played by a full band.

0 reply
poisonousmetal wrote on December 31 2010, 06:47 pm

Too much info!!! You know, you didn't need to put 5 guitars. Just Alexi, Roope & Janne. It takes less space and helps eyes rest. OR you could(and weould be very great) if you did a tab of each guitar. Or at least re-tab this with the 3(or 5 if you want) guitars separately. Oh and on the pivoting in the Pre-chorus Alexi hits maybe 2 or 3 more notes. I'll tab them for ya later.

I want to post or [tab]
guest
You may want to rate the tab now too:
select rating
Please do not post tabs as comments. Select "correction" instead!