Oops, an error
Loading. Please wait.

Mask Of Sanity Bass Tab

574 views 1 this week
no commentswrite comment
1 2 3 4 5
worth learning
x 1
Autoscroll
+/-
esc
set tempo
stop
Contributor
WARNING: You are trying to view
                                    content from Ultimate-Guitar.com
                                    in an unauthorized application,
                                    which is prohibited.

                                    Please use an official Ultimate
                                    Guitar Tabs application for iPhone,
                                    iPad or Android to access legitimate
                                    chords, guitar, bass, and drum tabs
                                    from Ultimate-Guitar.com database.

                                    Type "ultimate guitar tabs" in Apple
                                    App Store's or Android Market's
                                    search to find the application.
F||-------|-------||---------------------------|--------------------------|
C||*------|------*||*--------------------------|--------------------------|
G||*------|------*||*--7--7--7--7--7--7--7--7--|--7--7--7--7--5--5--5--5--|
D||-------|-------||---------------------------|--------------------------|


                                                            
--------------------------|-------------------------------||
--------------------------|------------------------------*||
--7--7--7--7--7--7--7--7--|--7--7--7--7--10--10----------*||
--------------------------|----------------------10--10---||


                                                       2x
---------------------------|---------------------------||
*--------------------------|--------------------------*||
*--7--7--7--7--7--7--7--7--|--7--7--7--7--5--5--5--5--*||
---------------------------|---------------------------||


                                                                              
--------------------------|-----------------------|--------------------------|
--------------------------|-----------------------|--------------------------|
--7--7--7--7--7--7--7--7--|--7--7--7--7--5--------|--------------------------|
--------------------------|-----------------------|--0--0--0--0--0--0--0--0--|


                                                      
--------------------------|--------------------------|
--------------------------|--------------------------|
--------------------------|--------------------------|
--0--0--0--0--0--0--0--0--|--0--0--0--0--0--0--0--0--|


                                                      
--------------------------|--------------------------|
--------------------------|--------------------------|
--------------------------|--------------------------|
--0--0--0--0--0--0--0--0--|--0--0--0--0--0--0--0--0--|


                                                      
--------------------------|-------------------|------|
--------------------------|-------------------|------|
--------------------------|--2----------------|------|
--0--0--0--0--0--0--0--0--|-------------------|------|


                                                      
--------------------------|--------------------------|
--------------------------|--------------------------|
--------------------------|--------------------------|
--0--0--0--0--0--0--0--0--|--0--0--0--0--0--0--0--0--|


                                                      
--------------------------|--------------------------|
--------------------------|--------------------------|
--------------------------|--------------------------|
--0--0--0--0--0--0--0--0--|--0--0--0--0--0--0--0--0--|


                                                                     
---------------------------------|----------------------------------|
---------------------------------|--------------------------5-5-5-5-|
--7--7-7-7-7-7-7-7-7-7-7-7-7-7-7-|--7-7-7-7-7-7-7-7-7-7-7-7---------|
---------------------------------|----------------------------------|


                                                                     
---------------------|-------------------|--------------------------|
--5------------------|-------------------|--------------------------|
-----------9----7----|-------------------|--------------------------|
---------------------|--0----------------|--0--0--0--0--0--0--0--0--|


                                                      
--------------------------|--------------------------|
--------------------------|--------------------------|
--------------------------|--------------------------|
--0--0--0--0--0--0--0--0--|--0--0--0--0--0--0--0--0--|


                                                             
--------------------------|---------------------------------|
--------------------------|---------------------------------|
--------------------------|--7--7-7-7-7-7-7-7-7-7-7-7-7-7-7-|
--0--0--0--0--0--0--0--0--|---------------------------------|


                                                                             
----------------------------------|---------------------|-------------------|
--------------------------5-5-5-5-|--5------------------|-------------------|
--7-7-7-7-7-7-7-7-7-7-7-7---------|-----------9----7----|-------------------|
----------------------------------|---------------------|--0----------------|


                                                                           
-----------------------|--------------------------|-----------------------|
----------5------------|--------------------------|-----------------------|
--3---------------7----|--------------------------|--3-------5-------7----|
-------0-------0-------|--0--0--0--0--0--0--0--0--|-------0-------0-------|


                                                                              
--------------------------|-----------------------|--------------------------|
--------------------------|----------5------------|--------------------------|
--------------------------|--3---------------7----|--------------------------|
--0--0--0--0--0--0--0--0--|-------0-------0-------|--0--0--0--0--0--0--0--0--|


                                                                      
-------------------|-------------------------|-----------------------|
-------------------|-------------------------|----------5------------|
--3----------------|-------------------------|--3---------------7----|
-------------------|--0--------0--0--0-0-0-0-|-------0-------0-------|


                                                                              
--------------------------|-----------------------|--------------------------|
--------------------------|-----------------------|--------------------------|
--------------------------|--3-------5-------7----|--------------------------|
--0--0--0--0--0--0--0--0--|-------0-------0-------|--0--0--0--0--0--0--0--0--|


                                                                       
-----------------------|--------------------------|-------------------|
----------5------------|--------------------------|--5----------------|
--3---------------7----|--------------------------|-------------------|
-------0-------0-------|--0--0--0--0--0--0--0--0--|-------------------|


                                                                          
-------------------|--------------------------|--------4--4--------------|
-------------------|--------6--6--4--4--6--6--|--2--2--------4--6--4-----|
-------------------|--4--4--------------------|-----------------------7--|
--0----------------|--------------------------|--------------------------|


                                                                                
--------------------------|-------------------------|--------------------------|
--------6--6--4--4--6--6--|-------------------------|--------6--6--4--4--6--6--|
--4--4--------------------|--2--2--2--2----2--4--4--|--4--4--------------------|
--------------------------|-------------------------|--------------------------|


                                                             
--------4--4--------------|--------------------------|------|
--2--2--------4--6--4-----|--------6--6--4--4--6--6--|------|
-----------------------7--|--4--4--------------------|------|
--------------------------|--------------------------|------|


                                                             
-------------------|--------------------|-------------------|
-------------------|--------------------|-------------------|
--4----------------|--7--------2--------|--4----------------|
-------------------|--------------------|-------------------|


                                                             
-------------------|-------------------|--------------------|
-------------------|-------------------|--------------------|
--4----------------|--4----------------|--7--------2--------|
-------------------|-------------------|--------------------|


                                                      
-------------------|------|--------------------------|
-------------------|------|--------------------------|
--4----------------|------|--7--7--7--7--7--7--7--7--|
-------------------|------|--------------------------|


                                                      
--------------------------|--------------------------|
--------------------------|--------------------------|
--7--7--7--7--5--5--5--5--|--7--7--7--7--7--7--7--7--|
--------------------------|--------------------------|


                                                          
------------------------------|--------------------------|
------------------------------|--------------------------|
--7--7--7--7--10--10----------|--7--7--7--7--7--7--7--7--|
----------------------10--10--|--------------------------|


                                                                     
--------------------------|--------------------|--------------------|
--------------------------|--------------------|--------------------|
--7--7--7--7--5--5--5--5--|--7--------5--------|--7-----------------|
--------------------------|--------------------|-----------0--------|


                                                      
--------------------------|--------------------------|
--------------------------|--------------------------|
--------------------------|--------------------------|
--0--0--0--0--0--0--0--0--|--0--0--0--0--0--0--0--0--|


                                                      
--------------------------|--------------------------|
--------------------------|--------------------------|
--------------------------|--------------------------|
--0--0--0--0--0--0--0--0--|--0--0--0--0--0--0--0--0--|


                                                                     
---------------------------------|----------------------------------|
---------------------------------|--------------------------5-5-5-5-|
--7--7-7-7-7-7-7-7-7-7-7-7-7-7-7-|--7-7-7-7-7-7-7-7-7-7-7-7---------|
---------------------------------|----------------------------------|


                                                                     
---------------------|-------------------|--------------------------|
--5------------------|-------------------|--------------------------|
-----------9----7----|-------------------|--------------------------|
---------------------|--0----------------|--0--0--0--0--0--0--0--0--|


                                                      
--------------------------|--------------------------|
--------------------------|--------------------------|
--------------------------|--------------------------|
--0--0--0--0--0--0--0--0--|--0--0--0--0--0--0--0--0--|


                                                             
--------------------------|---------------------------------|
--------------------------|---------------------------------|
--------------------------|--7--7-7-7-7-7-7-7-7-7-7-7-7-7-7-|
--0--0--0--0--0--0--0--0--|---------------------------------|


                                                                             
----------------------------------|---------------------|-------------------|
--------------------------5-5-5-5-|--5------------------|-------------------|
--7-7-7-7-7-7-7-7-7-7-7-7---------|-----------9----7----|-------------------|
----------------------------------|---------------------|--0----------------|


                3x                                         3x
|-------|-------||--------------------|--------------------||
|*------|------*||*-------------------|-------------------*||
|*------|------*||*--3----------------|--2----------------*||
|-------|-------||--------------------|--------------------||


                                                     2x
--------------------------|--------------------------||
*-------------------------|-------------------------*||
*--3--3--3--3--3----------|-------------------------*||
--------------------0--0--|--0--0--0----0--0--0--0---||


                                                                          
-------------------------|---------------------|-------------------------|
-------------------------|---------------------|-------------------------|
--3--3--3--3--3----------|---------------------|-------------------------|
-------------------0--0--|--0--0--0------------|--0--0--0--0--0----0--0--|


                                                                            
-------------------------|-------------------------|-----------------------|
-------------------------|-------------------------|-----------------------|
-------------------------|-------------------------|-----------------------|
--0--0--0----0--0--0--0--|--0--0--0--0--0----0--0--|--0--0--0----0----0----|


                                                                              
-------------------------|-------------------------|-------------------------|
-------------------------|-------------------------|-------------------------|
-------------------------|-------------------------|-------------------------|
--0--0--0--0--0----0--0--|--0--0--0----0--0--0--0--|--0--0--0--0--0----0--0--|


                                                                               
-----------------------|----------------------------|-------------------------|
-----------------------|----------------------------|-------------------------|
-----------------------|--5----5-5-5-5-5----5-5-5-5-|--5----5-5-5-5-5---------|
--0--0--0----0----0----|----------------------------|--------------------5----|


                                                       
----------------------------|-------------------------|
----------------------------|-------------------------|
----------------------------|-------------------------|
--7----7-7-7-7-7----7-7-7-7-|--7----7-7-7-7-7----5----|


                                                       
----------------------------|-------------------------|
----------------------------|-------------------------|
--5----5-5-5-5-5----5-5-5-5-|--5----5-5-5-5-5---------|
----------------------------|--------------------5----|


                                                                            
----------------------------|-------------------------|--------------------|
----------------------------|-------------------------|--------------------|
----------------------------|-------------------------|--5-----------------|
--7----7-7-7-7-7----7-7-7-7-|--7----7-7-7-7-7----5----|-----------5--------|


                                                        
--------------------|----------------------------------|
--------------------|----------------------------------|
--------------------|----------------------------------|
--7--------5--------|--3-3-3-3-3-3-3-3-3-3-3-3-3-3-3-3-|


                                                                      
----------------------------------|----------------------------------|
----------------------------------|----------------------------------|
----------------------------------|----------------------------------|
--3-3-3-3-3-3-3-3-3-3-3-3-3-3-3-3-|--5-5-5-5-5-5-5-5-5-5-5-5-5-5-5-5-|


                                                                
----------------------------------|----------------------------|
----------------------------------|----------------------------|
----------------------------------|--5----5-5-5-5-5----5-5-5-5-|
--5-5-5-5-5-5-5-5-5-5-5-5-5-5-5-5-|----------------------------|


                                                       
-------------------------|----------------------------|
-------------------------|----------------------------|
--5----5-5-5-5-5---------|----------------------------|
--------------------5----|--7----7-7-7-7-7----7-7-7-7-|


                                                       
-------------------------|----------------------------|
-------------------------|----------------------------|
-------------------------|--5----5-5-5-5-5----5-5-5-5-|
--7----7-7-7-7-7----5----|----------------------------|


                                                       
-------------------------|----------------------------|
-------------------------|----------------------------|
--5----5-5-5-5-5---------|----------------------------|
--------------------5----|--7----7-7-7-7-7----7-7-7-7-|


                                               
-------------------------|--------------------|
-------------------------|--------------------|
-------------------------|--------------------|
--7----7-7-7-7-7----5----|--3--------5--------|


                                                        
----------------------------------|--------------------|
----------------------------------|--------------------|
----------------------------------|--------------------|
--7-7-7-7-7-7-7-7-7-7-7-7-7-7-7-7-|--3--------5--------|


                                                        
----------------------------------|--------------------|
----------------------------------|--------------------|
----------------------------------|--------------------|
--7-7-7-7-7-7-7-7-7-7-7-7-7-7-7-7-|--3--------5--------|


                                                                                
----------------------------------|------------------------|-------------------|
----------------------------------|------------------------|-------------------|
----------------------------------|--5--4-----5--4---------|-------------------|
--7-7-7-7-7-7-7-7-7-7-7-7-7-7-7-7-|--------5--------5------|--7----------------|


                                                        2x
|---------------------------|---------------------------||
|*--------------------------|--------------------------*||
|*--2--2--2--2--2--2--2--2--|--2--2--2--2--2--2--2--2--*||
|---------------------------|---------------------------||


                                                                          
--------------------------|--------------------------|-------------------|
--------------------------|--------------------------|-------------------|
--2--2--2--2--2--2--2--2--|--2--2--2--2--2--2--2--2--|--4----------------|
--------------------------|--------------------------|-------------------|


                                                                    
--------------------|-------------------|------|-------------------|
--------------------|-------------------|------|-------------------|
--7--------2--------|--4----------------|------|--4----------------|
--------------------|-------------------|------|-------------------|


                                                                    
--------------------|-------------------|------|-------------------|
--------------------|-------------------|------|-------------------|
--7--------2--------|--4----------------|------|--4----------------|
--------------------|-------------------|------|-------------------|


                                                                    
--------------------|-------------------|------|-------------------|
--------------------|-------------------|------|-------------------|
--7--------2--------|--4----------------|------|--4----------------|
--------------------|-------------------|------|-------------------|


                                                                              
--------------------|-------------------||----------------------------------||
--------------------|-------------------||*--------------------------------*||
--7--------2--------|--4----------------||*--4--4-4-4-4-4-4-4-4-4--4-4-4-4-*||
--------------------|-------------------||----------------------------------||


                                                                      
----------------------------------|----------------------------------|
----------------------------------|----------------------------------|
--4-4-4-4-4-4-4-4-4-4-4-4-4-4-4-4-|--4-4-4-4-4-4-4-4-4-4-4-4-4-4-4-4-|
----------------------------------|----------------------------------|


                                                      
----------------------|----------------------|------||
----------------------|----------------------|------||
--7--4------6--2------|--7--4----------------|------||
----------------------|----------------------|------||
comments
We did not receive enough feedback on this tab! Please rate:
print report bad tab
1 2 3 4 5
I want to post or [tab]
guest
You may want to rate the tab now too:
select rating
Please do not post tabs as comments. Select "correction" instead!