Oops, an error
Loading. Please wait.

Needled 24 7 Bass Tab

ver1
ver1

Whole song

More versions @911Tabs.com
1,228 views 1 this week
1 commentread comment
1 2 3 4 5
worth learning
x 3
add to favorites launch autoscroll
font size
0
reset
Autoscroll
+/-
esc
set tempo
stop
Contributor
WARNING: You are trying to view
                                    content from Ultimate-Guitar.com
                                    in an unauthorized application,
                                    which is prohibited.

                                    Please use an official Ultimate
                                    Guitar Tabs application for iPhone,
                                    iPad or Android to access legitimate
                                    chords, guitar, bass, and drum tabs
                                    from Ultimate-Guitar.com database.

                                    Type "ultimate guitar tabs" in Apple
                                    App Store's or Android Market's
                                    search to find the application.
Tune down for a 5 string

F||-------|-------------------|---------------------|------------------|
C||-------|-------------------|---------------------|------------------|
G||-------|-------------------|---------------------|------------------|
D||----1--|--0----------------|--------3-------1----|------------------|
A||-------|-------------------|-------------3-------|------------------|


                                                               
--------------------|------------------|----------------------|
--------------------|------------------|----------------------|
--------------------|------------------|----------------------|
--------------1--0--|------------------|--------3-------1--0--|
--------------------|------------------|-------------3--------|


                                                                             
-------------------|---------------------|----------------------------------|
-------------------|---------------------|----------------------------------|
-------------------|---------------------|----------------------------------|
-------------------|----------------0----|--0-0-0-0-0-0-0-0-0-0-0-0-0-0-0-0-|
--------------0----|------1----3---------|----------------------------------|


                                                                      
----------------------------------|----------------------------------|
----------------------------------|----------------------------------|
----------------------------------|----------------------------------|
--0-0-0-0-0-0-0-0-0-0-0-0-0-0-0-0-|--0-0-0-0-0-0-0-0-0-0-0-0-0-0-0-0-|
----------------------------------|----------------------------------|


                                                                      
----------------------------------|----------------------------------|
----------------------------------|----------------------------------|
----------------------------------|----------------------------------|
--0-0-0-0-0-0-0-0-0-0-0-0-0-0-0-0-|--0-0-0-0-0-0-0-0-0-0-0-0-0-0-0-0-|
----------------------------------|----------------------------------|


                                                                      
----------------------------------|----------------------------------|
----------------------------------|----------------------------------|
----------------------------------|----------------------------------|
--0-0-0-0-0-0-0-0-0-0-0-0-0-0-0-0-|--0-0-0-0-0-0-0-0-0-0-0-0-0-0-0-0-|
----------------------------------|----------------------------------|


                                                                            
---------------------|--------------------------|--------------------------|
----------------0----|--------------------------|--------------0--0--0--0--|
--2--------3---------|--------------2--2--2--2--|--3--3--3--3--------------|
---------------------|--0--0--0--0--------------|--------------------------|
---------------------|--------------------------|--------------------------|


                                                      
--------------------------|--------------------------|
--2--2--2--2--------------|--------------0--0--0--0--|
--------------0--0--0--0--|--------------------------|
--------------------------|--3--3--3--3--------------|
--------------------------|--------------------------|


                                                      
--------------------------|--------------------------|
--------------------------|--------------0--0--0--0--|
--------------2--2--2--2--|--3--3--3--3--------------|
--0--0--0--0--------------|--------------------------|
--------------------------|--------------------------|


                                                   
--------------------------|-----------------------|
--2--2--2--2--------------|--------------0--------|
--------------0--0--0--0--|-----------------------|
--------------------------|--3--3--3--3-----------|
--------------------------|-----------------------|


                                                            
------------------------------|----------------------------|
------------------------------|----------------------------|
------------------------------|----------------------------|
--1--0--0--0-0-0-0-0-0-0--0-0-|--0-0-0-0-0--0--3--3--2--2--|
------------------------------|----------------------------|


                                                                               
------------------------------|--------------------------|--------------------|
------------------------------|--------2--0--2--2--------|--------------------|
------------------------------|--------------------3--2--|--0--------3--------|
--1--0--0--0-0-0-0-0-0-0--0-0-|--0--0--------------------|--------------------|
------------------------------|--------------------------|--------------------|


                                                                               
--------------------|------------------------------|--------------------------|
--------------------|------------------------------|--------2--0--2--2--------|
--0--------3--------|------------------------------|--------------------------|
--------------------|--1--0--0--0-0-0-0-0-0-0--0-0-|--0--0--------------------|
--------------------|------------------------------|--------------------1--0--|


                                                            
------------------------------|----------------------------|
------------------------------|----------------------------|
------------------------------|----------------------------|
--1--0--0--0-0-0-0-0-0-0--0-0-|--0-0-0-0-0--0--3--3--2--2--|
------------------------------|----------------------------|


                                                                               
------------------------------|--------------------------|--------------------|
------------------------------|--------2--0--2--2--------|--------------------|
------------------------------|--------------------3--2--|--0--------3--------|
--1--0--0--0-0-0-0-0-0-0--0-0-|--0--0--------------------|--------------------|
------------------------------|--------------------------|--------------------|


                                                                              
--------------------|-----------------------------|--------------------------|
--------------------|-----------------------------|--------------------------|
--0--------3--------|-----------------------------|--2--1--2--1--0--------0--|
--------------------|--1--0--0--0-0-0-0-0-0-0--0--|-----------------0--1-----|
--------------------|-----------------------------|--------------------------|


                                                      
--------------------------|--------------------------|
--------2-----0--2--------|--3--2-----2--------0--2--|
--------------------------|--------------------------|
--0--0-----0--------0--0--|--------0-----0--0--------|
--------------------------|--------------------------|


                                                      
--------------------------|--------------------------|
--------2-----0--2--------|--3--2-----2--------0--2--|
--------------------------|--------------------------|
--0--0-----0--------0--0--|--------0-----0--0--------|
--------------------------|--------------------------|


                                                      
--------------------------|--------------------------|
--------2-----0--2--------|--3--2-----2--------0--2--|
--------------------------|--------------------------|
--0--0-----0--------0--0--|--------0-----0--0--------|
--------------------------|--------------------------|


                                                      
--------------------------|--------------------------|
--------2-----0--2--------|--3--2-----2--------0--2--|
--------------------------|--------------------------|
--0--0-----0--------0--0--|--------0-----0--0--------|
--------------------------|--------------------------|


                                                      
--------------------------|--------------------------|
--------------------------|--------------0--0--0--0--|
--------------2--2--2--2--|--3--3--3--3--------------|
--0--0--0--0--------------|--------------------------|
--------------------------|--------------------------|


                                                      
--------------------------|--------------------------|
--2--2--2--2--------------|--------------0--0--0--0--|
--------------0--0--0--0--|--------------------------|
--------------------------|--3--3--3--3--------------|
--------------------------|--------------------------|


                                                      
--------------------------|--------------------------|
--------------------------|--------------0--0--0--0--|
--------------2--2--2--2--|--3--3--3--3--------------|
--0--0--0--0--------------|--------------------------|
--------------------------|--------------------------|


                                                                              
--------------------------|-----------------------|--------------------------|
--2--2--2--2--------------|--------------0--------|--------2-----0--2--------|
--------------0--0--0--0--|-----------------------|--------------------------|
--------------------------|--3--3--3--3-----------|--0--0-----0--------0--0--|
--------------------------|-----------------------|--------------------------|


                                                      
--------------------------|--------------------------|
--3--2-----2--------0--2--|--------2-----0--2--------|
--------------------------|--------------------------|
--------0-----0--0--------|--0--0-----0--------0--0--|
--------------------------|--------------------------|


                                                      
--------------------------|--------------------------|
--3--2-----2--------0--2--|--------2-----0--2--------|
--------------------------|--------------------------|
--------0-----0--0--------|--0--0-----0--------0--0--|
--------------------------|--------------------------|


                                                      
--------------------------|--------------------------|
--3--2-----2--------0--2--|--------2-----0--2--------|
--------------------------|--------------------------|
--------0-----0--0--------|--0--0-----0--------0--0--|
--------------------------|--------------------------|


                                                      
--------------------------|--------------------------|
--------------------------|--------------------------|
--2--2--2--2--2--2--2--2--|--------------------------|
--------------------------|--0--0--0--0--2--2--2--2--|
--------------------------|--------------------------|


                                                           
--------------------------|-------------------------------|
--------------0--0--0--0--|-------------------------------|
--------------------------|--3--3-3-3--3-3-3--3-3-3-3-3-3-|
--3--3--3--3--------------|-------------------------------|
--------------------------|-------------------------------|


                                                           
-------------------------------|--------------------------|
-------------------------------|--------------0--0--0--0--|
--3--3-3-3--3-3-3--3-3-3-3-3-3-|--3--3--3--3--------------|
-------------------------------|--------------------------|
-------------------------------|--------------------------|


                                                              
--------------------------|----------------------------------|
--2--2--2--2--0--0--0--0--|----------------------------------|
--------------------------|----------------------------------|
--------------------------|--0-0-0-0-0-0-0-0-0-0-0-0-0-0-0-0-|
--------------------------|----------------------------------|


                                                              
----------------------------------|--------------------------|
----------------------------------|--------------------------|
----------------------------------|--------------------------|
--0-0-0-0-0-0-0-0-0-0-0-0-0-0-0-0-|--0--0--0--0--2--2--2--2--|
----------------------------------|--------------------------|


                                                           
--------------------------|-------------------------------|
--------------0--0--0--0--|-------------------------------|
--------------------------|--3--3-3-3--3-3-3--3-3-3-3-3-3-|
--3--3--3--3--------------|-------------------------------|
--------------------------|-------------------------------|


                                                           
-------------------------------|--------------------------|
-------------------------------|--------------0--0--0--0--|
--3--3-3-3--3-3-3--3-3-3-3-3-3-|--3--3--3--3--------------|
-------------------------------|--------------------------|
-------------------------------|--------------------------|


                                                              
--------------------------|----------------------------------|
--2--2--2--2--0--0--0--0--|----------------------------------|
--------------------------|----------------------------------|
--------------------------|--0-0-0-0-0-0-0-0-0-0-0-0-0-0-0-0-|
--------------------------|----------------------------------|


                                                       
-------------------|----------------------------------|
-------------------|----------------------------------|
-------------------|----------------------------------|
--0----------------|--0-0-0-0-0-0-0-0-0-0-0-0-0-0-0-0-|
-------------------|----------------------------------|


                                                                   
-------------------------------|----------------------------------|
--------------------------2----|----------------------------------|
-------------------------------|----------------------------------|
--0-0-0-0-0-0-0-0-0-0-0-0------|--0-0-0-0-0-0-0-0-0-0-0-0-0-0-0-0-|
-------------------------------|----------------------------------|


                                                                   
-------------------------------|----------------------------------|
--------------------------3----|----------------------------------|
-------------------------------|----------------------------------|
--0-0-0-0-0-0-0-0-0-0-0-0------|--0-0-0-0-0-0-0-0-0-0-0-0-0-0-0-0-|
-------------------------------|----------------------------------|


                                                                   
-------------------------------|----------------------------------|
--------------------------2----|----------------------------------|
-------------------------------|----------------------------------|
--0-0-0-0-0-0-0-0-0-0-0-0------|--0-0-0-0-0-0-0-0-0-0-0-0-0-0-0-0-|
-------------------------------|----------------------------------|


                                                      
----------------------|------------------------------|
------------0---------|------------------------------|
--3--------------0----|------------------------------|
-------3--------------|--1--0--0--0-0-0-0-0-0-0--0-0-|
----------------------|------------------------------|


                                                            
----------------------------|------------------------------|
----------------------------|------------------------------|
----------------------------|------------------------------|
--0-0-0-0-0--0--3--3--2--2--|--1--0--0--0-0-0-0-0-0-0--0-0-|
----------------------------|------------------------------|


                                                                     
--------------------------|--------------------|--------------------|
--------2--0--2--2--------|--------------------|--------------------|
--------------------3--2--|--0--------3--------|--0--------3--------|
--0--0--------------------|--------------------|--------------------|
--------------------------|--------------------|--------------------|


                                                          
------------------------------|--------------------------|
------------------------------|--------2--0--2--2--------|
------------------------------|--------------------------|
--1--0--0--0-0-0-0-0-0-0--0-0-|--0--0--------------------|
------------------------------|--------------------1--0--|


                                                            
------------------------------|----------------------------|
------------------------------|----------------------------|
------------------------------|----------------------------|
--1--0--0--0-0-0-0-0-0-0--0-0-|--0-0-0-0-0--0--3--3--2--2--|
------------------------------|----------------------------|


                                                                               
------------------------------|--------------------------|--------------------|
------------------------------|--------2--0--2--2--------|--------------------|
------------------------------|--------------------3--2--|--0--------3--------|
--1--0--0--0-0-0-0-0-0-0--0-0-|--0--0--------------------|--------------------|
------------------------------|--------------------------|--------------------|


                                                                              
--------------------|-----------------------------|--------------------------|
--------------------|-----------------------------|--------------------------|
--0--------3--------|-----------------------------|--2--2--2--2--2--2--2--2--|
--------------------|--1--0--0--0-0-0-0-0-0-0--0--|--------------------------|
--------------------|-----------------------------|--------------------------|


                                                      
--------------------------|--------------------------|
--------------------------|--------------0--0--0--0--|
--------------------------|--------------------------|
--0--0--0--0--2--2--2--2--|--3--3--3--3--------------|
--------------------------|--------------------------|


                                                                
-------------------------------|-------------------------------|
-------------------------------|-------------------------------|
--3--3-3-3--3-3-3--3-3-3-3-3-3-|--3--3-3-3--3-3-3--3-3-3-3-3-3-|
-------------------------------|-------------------------------|
-------------------------------|-------------------------------|


                                                      
--------------------------|--------------------------|
--------------0--0--0--0--|--2--2--2--2--0--0--0--0--|
--3--3--3--3--------------|--------------------------|
--------------------------|--------------------------|
--------------------------|--------------------------|


                                                                      
----------------------------------|----------------------------------|
----------------------------------|----------------------------------|
----------------------------------|----------------------------------|
--0-0-0-0-0-0-0-0-0-0-0-0-0-0-0-0-|--0-0-0-0-0-0-0-0-0-0-0-0-0-0-0-0-|
----------------------------------|----------------------------------|


                                                      
--------------------------|--------------------------|
--------------------------|--------------0--0--0--0--|
--------------------------|--------------------------|
--0--0--0--0--2--2--2--2--|--3--3--3--3--------------|
--------------------------|--------------------------|


                                                                
-------------------------------|-------------------------------|
-------------------------------|-------------------------------|
--3--3-3-3--3-3-3--3-3-3-3-3-3-|--3--3-3-3--3-3-3--3-3-3-3-3-3-|
-------------------------------|-------------------------------|
-------------------------------|-------------------------------|


                                                      
--------------------------|--------------------------|
--------------0--0--0--0--|--2--2--2--2--0--0--0--0--|
--3--3--3--3--------------|--------------------------|
--------------------------|--------------------------|
--------------------------|--------------------------|


                                                                      
----------------------------------|----------------------------------|
----------------------------------|----------------------------------|
----------------------------------|----------------------------------|
--0-0-0-0-0-0-0-0-0-0-0-0-0-0-0-0-|--0-0-0-0-0-0-0-0-0-0-0-0-0-0-0-0-|
----------------------------------|----------------------------------|


                                                                
--------------------|---------------------|--------------------|
--------------------|---------------------|--------------------|
--3------------1----|--3------------1--1--|--3------------1----|
--------------------|---------------------|--------------------|
--------------------|---------------------|--------------------|


                                                                     
--------------------------|--------------------|--------------------|
--------------------------|--------------------|--------------------|
--3--------4----3----1----|--3--------------3--|--3--------------3--|
--------------------------|--------------------|--------------------|
--------------------------|--------------------|--------------------|


                                                              
--------------------|-------------------|--------------------|
--------------------|-------------------|--------------------|
--3--------------3--|--1----------------|--3--------------3--|
--------------------|-------------------|--------------------|
--------------------|-------------------|--------------------|


                                                                     
--------------------|-----------------------|-----------------------|
--------------------|-----------------------|-----------------------|
--3--------------3--|--1----1--1----1--1----|--1--1----1--1----1----|
--------------------|-----------------------|-----------------------|
--------------------|-----------------------|-----------------------|


                                                      
--------------------------|--------------------------|
--------------------------|--0--0--0--0--0--0--0--0--|
--1--1--1--1--3--3--3--3--|--------------------------|
--------------------------|--------------------------|
--------------------------|--------------------------|


                                                      
--------------------------|--------------------------|
--------------------------|--0--0--0--0--0--0--0--0--|
--1--1--1--1--3--3--3--3--|--------------------------|
--------------------------|--------------------------|
--------------------------|--------------------------|


                                                      
--------------------------|--------------------------|
--------------------------|--0--0--0--0--0--0--0--0--|
--1--1--1--1--3--3--3--3--|--------------------------|
--------------------------|--------------------------|
--------------------------|--------------------------|


                                                      
--------------------------|--------------------------|
--------------------------|--0--0--0--0--0--0--0--0--|
--1--1--1--1--3--3--3--3--|--------------------------|
--------------------------|--------------------------|
--------------------------|--------------------------|


                                                      
--------------------------|--------------------------|
--------------------------|--0--0--0--0--0--0--0--0--|
--1--1--1--1--3--3--3--3--|--------------------------|
--------------------------|--------------------------|
--------------------------|--------------------------|


                                                      
--------------------------|--------------------------|
--------------1--1--1--1--|--0--0--0--0--0--0--------|
--------------------------|--------------------3--3--|
--4--4--4--4--------------|--------------------------|
--------------------------|--------------------------|


                                                      
--------------------------|--------------------------|
--------------------------|--0--0--0--0--0--0--0--0--|
--1--1--1--1--3--3--3--3--|--------------------------|
--------------------------|--------------------------|
--------------------------|--------------------------|


                                                      
--------------------------|--------------------------|
--------------1--1--1--1--|--0--0--0--0--0--0--------|
--------------------------|--------------------3--3--|
--4--4--4--4--------------|--------------------------|
--------------------------|--------------------------|


                                                      
--------------------------|--------------------------|
--------------------------|--0--0--0--0--0--0--0--0--|
--1--1--1--1--3--3--3--3--|--------------------------|
--------------------------|--------------------------|
--------------------------|--------------------------|


                                                      
--------------------------|--------------------------|
--------------1--1--1--1--|--0--0--0--0--0--0--------|
--------------------------|--------------------3--3--|
--4--4--4--4--------------|--------------------------|
--------------------------|--------------------------|


                                                      
--------------------------|--------------------------|
--------------------------|--0--0--0--0--0--0--0--0--|
--1--1--1--1--3--3--3--3--|--------------------------|
--------------------------|--------------------------|
--------------------------|--------------------------|


                                                      
--------------------------|--------------------------|
--------------1--1--1--1--|--0--0--0--0--0--0--------|
--------------------------|--------------------3--3--|
--4--4--4--4--------------|--------------------------|
--------------------------|--------------------------|


                                                      
--------------------------|--------------------------|
--------------------------|--------------0--0--0--0--|
--------------2--2--2--2--|--3--3--3--3--------------|
--0--0--0--0--------------|--------------------------|
--------------------------|--------------------------|


                                                      
--------------------------|--------------------------|
--2--2--2--2--------------|--------------0--0--0--0--|
--------------0--0--0--0--|--------------------------|
--------------------------|--3--3--3--3--------------|
--------------------------|--------------------------|


                                                      
--------------------------|--------------------------|
--------------------------|--------------0--0--0--0--|
--------------2--2--2--2--|--3--3--3--3--------------|
--0--0--0--0--------------|--------------------------|
--------------------------|--------------------------|


                                                                              
--------------------------|-----------------------|--------------------------|
--2--2--2--2--------------|--------------0--------|----------------0----3----|
--------------0--0--0--0--|-----------------------|-----------3--------------|
--------------------------|--3--3--3--3-----------|--0-----------------------|
--------------------------|-----------------------|--------------------------|


                                                      
--------------------------|--------------------------|
--------2-----0--2--------|--3--2-----2--------0--2--|
--------------------------|--------------------------|
--0--0-----0--------0--0--|--------0-----0--0--------|
--------------------------|--------------------------|


                                                      
--------------------------|--------------------------|
--------2-----0--2--------|--3--2-----2--------0--2--|
--------------------------|--------------------------|
--0--0-----0--------0--0--|--------0-----0--0--------|
--------------------------|--------------------------|


                                                      
--------------------------|--------------------------|
--------------------------|--------------------------|
--------------------------|--------------------------|
--0--0--0--0--0--0--0--0--|--0--0--0--0--0--0--0--0--|
--------------------------|--------------------------|


                                                                           
--------------------------|--------------------|--------------------------|
--------------------------|--0--2--------------|--------------------------|
--------------------------|--------------------|--------------------------|
--0--0--0--0--0--0--0--0--|--------------------|--0--0--0--0--2--2--2--2--|
--------------------------|--------------------|--------------------------|


                                                           
--------------------------|-------------------------------|
--------------0--0--0--0--|-------------------------------|
--------------------------|--3--3-3-3--3-3-3--3-3-3-3-3-3-|
--3--3--3--3--------------|-------------------------------|
--------------------------|-------------------------------|


                                                           
-------------------------------|--------------------------|
-------------------------------|--------------0--0--0--0--|
--3--3-3-3--3-3-3--3-3-3-3-3-3-|--3--3--3--3--------------|
-------------------------------|--------------------------|
-------------------------------|--------------------------|


                                                              
--------------------------|----------------------------------|
--2--2--2--2--0--0--0--0--|----------------------------------|
--------------------------|----------------------------------|
--------------------------|--0-0-0-0-0-0-0-0-0-0-0-0-0-0-0-0-|
--------------------------|----------------------------------|


                                                              
----------------------------------|--------------------------|
----------------------------------|--------------------------|
----------------------------------|--------------------------|
--0-0-0-0-0-0-0-0-0-0-0-0-0-0-0-0-|--0--0--0--0--2--2--2--2--|
----------------------------------|--------------------------|


                                                           
--------------------------|-------------------------------|
--------------0--0--0--0--|-------------------------------|
--------------------------|--3--3-3-3--3-3-3--3-3-3-3-3-3-|
--3--3--3--3--------------|-------------------------------|
--------------------------|-------------------------------|


                                                           
-------------------------------|--------------------------|
-------------------------------|--------------0--0--0--0--|
--3--3-3-3--3-3-3--3-3-3-3-3-3-|--3--3--3--3--------------|
-------------------------------|--------------------------|
-------------------------------|--------------------------|


                                                              
--0--0--0--0--------------|----------------------------------|
--------------0--0--0--0--|----------------------------------|
--------------------------|----------------------------------|
--------------------------|--0-0-0-0-0-0-0-0-0-0-0-0-0-0-0-0-|
--------------------------|----------------------------------|


                                                                      
----------------------------------|----------------------------------|
----------------------------------|----------------------------------|
----------------------------------|----------------------------------|
--0-0-0-0-0-0-0-0-0-0-0-0-0-0-0-0-|--0-0-0-0-0-0-0-0-0-0-0-0-0-0-0-0-|
----------------------------------|----------------------------------|


                                                                            
----------------------------------|---------------------|------------------|
----------------------------------|--2------0-----------|------------------|
----------------------------------|----------------3----|------------------|
--0-0-0-0-0-0-0-0-0-0-0-0-0-0-0-0-|---------------------|------------------|
----------------------------------|---------------------|------------------|


                     
-------------------||
-------------------||
-------------------||
--0----------------||
-------------------||
comments
We did not receive enough feedback on this tab! Please rate:
print report bad tab
1 2 3 4 5
1 comment total.
0 reply
wintee_madness wrote on July 8 2007, 07:12 pm

Im gonna tab it again for a 4 string modelling it off yours :),

I want to post or [tab]
guest
You may want to rate the tab now too:
select rating
Please do not post tabs as comments. Select "correction" instead!