Oops, an error
Loading. Please wait.

Needled 24 7 Bass Tab

ver3
ver3

Whole song

More versions @911Tabs.com
1,130 views 3 this week
no commentswrite comment
1 2 3 4 5
accurate
x 4
add to favorites launch autoscroll
font size
0
reset
Autoscroll
+/-
esc
set tempo
stop
Contributor
Difficulty
Tabbers playing skills
intermediate
intermediate +
WARNING: You are trying to view
                                    content from Ultimate-Guitar.com
                                    in an unauthorized application,
                                    which is prohibited.

                                    Please use an official Ultimate
                                    Guitar Tabs application for iPhone,
                                    iPad or Android to access legitimate
                                    chords, guitar, bass, and drum tabs
                                    from Ultimate-Guitar.com database.

                                    Type "ultimate guitar tabs" in Apple
                                    App Store's or Android Market's
                                    search to find the application.
F||-------|-------------------|---------------------|------------------|
C||-------|-------------------|---------------------|------------------|
G||-------|-------------------|-------------5-------|------------------|
D||----1--|--0----------------|--------3-------1----|------------------|



                                                               
--------------------|------------------|----------------------|
--------------------|------------------|----------------------|
--------------------|------------------|-------------5--------|
--------------1--0--|------------------|--------3-------1--0--|



                                                                             
-------------------|---------------------|----------------------------------|
-------------------|---------------------|----------------------------------|
--------------2----|------3----5---------|----------------------------------|
-------------------|----------------0----|--0-0-0-0-0-0-0-0-0-0-0-0-0-0-0-0-|



                                                                      
----------------------------------|----------------------------------|
----------------------------------|----------------------------------|
----------------------------------|----------------------------------|
--0-0-0-0-0-0-0-0-0-0-0-0-0-0-0-0-|--0-0-0-0-0-0-0-0-0-0-0-0-0-0-0-0-|


                                                                      
----------------------------------|----------------------------------|
----------------------------------|----------------------------------|
----------------------------------|----------------------------------|
--0-0-0-0-0-0-0-0-0-0-0-0-0-0-0-0-|--0-0-0-0-0-0-0-0-0-0-0-0-0-0-0-0-|



                                                                      
----------------------------------|----------------------------------|
----------------------------------|----------------------------------|
----------------------------------|----------------------------------|
--0-0-0-0-0-0-0-0-0-0-0-0-0-0-0-0-|--0-0-0-0-0-0-0-0-0-0-0-0-0-0-0-0-|



                                                                            
---------------------|--------------------------|--------------------------|
---------------------|--------------------------|--------------------------|
--2--------3----5----|--------------2--2--2--2--|--3--3--3--3--5--5--5--5--|
---------------------|--0--0--0--0--------------|--------------------------|



                                                      
--------------------------|--------------------------|
--------------------------|--------------0--0--0--0--|
--7--7--7--7--0--0--0--0--|--------------------------|
--------------------------|--3--3--3--3--------------|



                                                      
--------------------------|--------------------------|
--------------------------|--------------------------|
--------------2--2--2--2--|--3--3--3--3--5--5--5--5--|
--0--0--0--0--------------|--------------------------|



                                                   
--------------------------|-----------------------|
--------------------------|-----------------------|
--7--7--7--7--0--0--0--0--|--------------5--------|
--------------------------|--3--3--3--3-----------|



                                                            
------------------------------|----------------------------|
------------------------------|----------------------------|
------------------------------|----------------------------|
--1--0--0--0-0-0-0-0-0-0--0-0-|--0-0-0-0-0--0--3--3--2--2--|


                                                                               
------------------------------|--------------------------|--------------------|
------------------------------|--------------------------|--------------------|
------------------------------|-----------5--------3--2--|--0--------3--------|
--1--0--0--0-0-0-0-0-0-0--0-0-|--0--0--0-----0--0--------|--------------------|



                                                                               
--------------------|------------------------------|--------------------------|
--------------------|------------------------------|--------2--0--2--2--------|
--0--------3--------|------------------------------|--------------------3--2--|
--------------------|--1--0--0--0-0-0-0-0-0-0--0-0-|--0--0--------------------|



                                                            
------------------------------|----------------------------|
------------------------------|----------------------------|
------------------------------|----------------------------|
--1--0--0--0-0-0-0-0-0-0--0-0-|--0-0-0-0-0--0--3--3--2--2--|



                                                                               
------------------------------|--------------------------|--------------------|
------------------------------|--------2--0--2--2--------|--------------------|
------------------------------|--------------------3--2--|--0--------3--------|
--1--0--0--0-0-0-0-0-0-0--0-0-|--0--0--------------------|--------------------|



                                                                              
--------------------|-----------------------------|--------------------------|
--------------------|-----------------------------|--------------------------|
--0--------3--------|-----------------------------|--2--1--2--1--0--------0--|
--------------------|--1--0--0--0-0-0-0-0-0-0--0--|-----------------0--1-----|



                                                      
--------------------------|--------------------------|
--------------------------|--------------------------|
--------7-----5--7--------|--8--7-----7--------5--7--|
--0--0-----0--------0--0--|--------0-----0--0--------|



                                                      
--------------------------|--------------------------|
--------------------------|--------------------------|
--------7-----5--7--------|--8--7-----7--------5--7--|
--0--0-----0--------0--0--|--------0-----0--0--------|



                                                      
--------------------------|--------------------------|
--------------------------|--------------------------|
--------7-----5--7--------|--8--7-----7--------5--7--|
--0--0-----0--------0--0--|--------0-----0--0--------|



                                                      
--------------------------|--------------------------|
--------------------------|--------------------------|
--------7------5--7-------|--8--7-----7--------5--7--|
--0--0-----0--------0--0--|--------0-----0--0--------|



                                                      
--------------------------|--------------------------|
--------------------------|--------------------------|
--------------2--2--2--2--|--3--3--3--3--5--5--5--5--|
--0--0--0--0--------------|--------------------------|



                                                      
--------------------------|--------------------------|
--------------------------|--------------------------|
--7--7--7--7--0--0--0--0--|--------------5--5--5--5--|
--------------------------|--3--3--3--3--------------|



                                                      
--------------------------|--------------------------|
--------------------------|--------------------------|
--------------2--2--2--2--|--3--3--3--3--5--5--5--5--|
--0--0--0--0--------------|--------------------------|



                                                                              
--------------------------|-----------------------|--------------------------|
--------------------------|-----------------------|--------------------------|
--7--7--7--7--0--0--0--0--|--------------5--------|--------7-----5--7--------|
--------------------------|--3--3--3--3-----------|--0--0-----0--------0--0--|



                                                      
--------------------------|--------------------------|
--------------------------|--------------------------|
--8--7-----7--------5--7--|--------7-----5--7--------|
--------0-----0--0--------|--0--0-----0--------0--0--|



                                                      
--------------------------|--------------------------|
--------------------------|--------------------------|
--8--7-----7--------5--7--|--------7-----5--7--------|
--------0-----0--0--------|--0--0-----0--------0--0--|



                                                      
--------------------------|--------------------------|
--------------------------|--------------------------|
--8--7-----7--------5--7--|--------7-----5--7--------|
--------0-----0--0--------|--0--0-----0--------0--0--|



                                                      
--------------------------|--------------------------|
--------------------------|--------------------------|
--2--2--2--2--2--2--2--2--|--------------------------|
--------------------------|--0--0--0--0--2--2--2--2--|



                                                           
--------------------------|-------------------------------|
--------------------------|-------------------------------|
--------------5--5--5--5--|--3--3-3-3--3-3-3--3-3-3-3-3-3-|
--3--3--3--3--------------|-------------------------------|



                                                           
-------------------------------|--------------------------|
-------------------------------|--------------------------|
--3--3-3-3--3-3-3--3-3-3-3-3-3-|--3--3--3--3--5--5--5--5--|
-------------------------------|--------------------------|



                                                              
--------------------------|----------------------------------|
--------------------------|----------------------------------|
--7--7--7--7--5--5--5--5--|--7-7-7-7-7-7-7-7-7-7-7-7-7-7-7-7-|
--------------------------|----------------------------------|



                                                              
----------------------------------|--------------------------|
----------------------------------|--------------------------|
--7-7-7-7-7-7-7-7-7-7-7-7-7-7-7-7-|--------------------------|
----------------------------------|--0--0--0--0--2--2--2--2--|



                                                           
--------------------------|-------------------------------|
--------------------------|-------------------------------|
--------------5--5--5--5--|--3--3-3-3--3-3-3--3-3-3-3-3-3-|
--3--3--3--3--------------|-------------------------------|



                                                           
-------------------------------|--------------------------|
-------------------------------|--------------------------|
--3--3-3-3--3-3-3--3-3-3-3-3-3-|--3--3--3--3--5--5--5--5--|




                                                              
--------------------------|----------------------------------|
--------------------------|----------------------------------|
--7--7--7--7--5--5--5--5--|--7-7-7-7-7-7-7-7-7-7-7-7-7-7-7-7-|
--------------------------|----------------------------------|



                                                       
-------------------|----------------------------------|
-------------------|----------------------------------|
-------------------|----------------------------------|
--0----------------|--0-0-0-0-0-0-0-0-0-0-0-0-0-0-0-0-|



                                                                   
-------------------------------|----------------------------------|
-------------------------------|----------------------------------|
--------------------------7----|----------------------------------|
--0-0-0-0-0-0-0-0-0-0-0-0------|--0-0-0-0-0-0-0-0-0-0-0-0-0-0-0-0-|



                                                                   
-------------------------------|----------------------------------|
-------------------------------|----------------------------------|
--------------------------8----|----------------------------------|
--0-0-0-0-0-0-0-0-0-0-0-0------|--0-0-0-0-0-0-0-0-0-0-0-0-0-0-0-0-|



                                                                   
-------------------------------|----------------------------------|
-------------------------------|----------------------------------|
--------------------------7----|----------------------------------|
--0-0-0-0-0-0-0-0-0-0-0-0------|--0-0-0-0-0-0-0-0-0-0-0-0-0-0-0-0-|



                                                      
----------------------|------------------------------|
------------5---------|------------------------------|
--3--------------5----|------------------------------|
-------3--------------|--1--0--0--0-0-0-0-0-0-0--0-0-|



                                                            
----------------------------|------------------------------|
----------------------------|------------------------------|
----------------------------|------------------------------|
--0-0-0-0-0--0--3--3--2--2--|--1--0--0--0-0-0-0-0-0-0--0-0-|



                                                                     
--------------------------|--------------------|--------------------|
--------2--0--2--2--------|--------------------|--------------------|
--------------------3--2--|-----------3--------|-----------3--------|
--0--0--------------------|--5-----------------|--5-----------------|



                                                          
------------------------------|--------------------------|
------------------------------|--------------------------|
------------------------------|--------7--5--7--7--3--2--|
--1--0--0--0-0-0-0-0-0-0--0-0-|--0--0--------------------|



                                                            
------------------------------|----------------------------|
------------------------------|----------------------------|
------------------------------|----------------------------|
--1--0--0--0-0-0-0-0-0-0--0-0-|--0-0-0-0-0--0--3--3--2--2--|



                                                                               
------------------------------|--------------------------|--------------------|
------------------------------|--------------------------|--------------------|
------------------------------|--------7--5--7--7--3--2--|--0--------3--------|
--1--0--0--0-0-0-0-0-0-0--0-0-|--0--0--------------------|--------------------|



                                                                              
--------------------|-----------------------------|--------------------------|
--------------------|-----------------------------|--------------------------|
--0--------3--------|-----------------------------|--2--2--2--2--2--2--2--2--|
--------------------|--1--0--0--0-0-0-0-0-0-0--0--|--------------------------|



                                                      
--------------------------|--------------------------|
--------------------------|--------------------------|
--------------------------|--------------5--5--5--5--|
--0--0--0--0--2--2--2--2--|--3--3--3--3--------------|



                                                                
-------------------------------|-------------------------------|
-------------------------------|-------------------------------|
--3--3-3-3--3-3-3--3-3-3-3-3-3-|--3--3-3-3--3-3-3--3-3-3-3-3-3-|
-------------------------------|-------------------------------|



                                                      
--------------------------|--------------------------|
--------------------------|--------------------------|
--3--3--3--3--5--5--5--5--|--7--7--7--7--5--5--5--5--|
--------------------------|--------------------------|



                                                                      
----------------------------------|----------------------------------|
----------------------------------|----------------------------------|
--7-7-7-7-7-7-7-7-7-7-7-7-7-7-7-7-|--7-7-7-7-7-7-7-7-7-7-7-7-7-7-7-7-|
----------------------------------|----------------------------------|



                                                      
--------------------------|--------------------------|
--------------------------|--------------------------|
--------------------------|--------------5--5--5--5--|
--0--0--0--0--2--2--2--2--|--3--3--3--3--------------|



                                                                
-------------------------------|-------------------------------|
-------------------------------|-------------------------------|
--3--3-3-3--3-3-3--3-3-3-3-3-3-|--3--3-3-3--3-3-3--3-3-3-3-3-3-|
-------------------------------|-------------------------------|



                                                      
--------------------------|--------------------------|
--------------------------|--------------------------|
--3--3--3--3--5--5--5--5--|--7--7--7--7--5--5--5--5--|
--------------------------|--------------------------|



                                                                      
----------------------------------|----------------------------------|
----------------------------------|----------------------------------|
--7-7-7-7-7-7-7-7-7-7-7-7-7-7-7-7-|--7-7-7-7-7-7-7-7-7-7-7-7-7-7-7-7-|
----------------------------------|----------------------------------|



                                                                
--------------------|---------------------|--------------------|
--------------------|---------------------|--------------------|
--3------------1----|--3------------1--1--|--3------------1----|
--------------------|---------------------|--------------------|



                                                                     
--------------------------|--------------------|--------------------|
--------------------------|--------------------|--------------------|
--3--------4----3----1----|--3--------------3--|--3--------------3--|
--------------------------|--------------------|--------------------|



                                                              
--------------------|-------------------|--------------------|
--------------------|-------------------|--------------------|
--3--------------3--|--1----------------|--3--------------3--|
--------------------|-------------------|--------------------|



                                                                     
--------------------|-----------------------|-----------------------|
--------------------|-----------------------|-----------------------|
--3--------------3--|--1----1--1----1--1----|--1--1----1--1----1----|
--------------------|-----------------------|-----------------------|



                                                      
--------------------------|--------------------------|
--------------------------|--------------------------|
--1--1--1--1--3--3--3--3--|--5--5--5--5--5--5--5--5--|
--------------------------|--------------------------|



                                                      
--------------------------|--------------------------|
--------------------------|--------------------------|
--1--1--1--1--3--3--3--3--|--5--5--5--5--5--5--5--5--|
--------------------------|--------------------------|



                                                      
--------------------------|--------------------------|
--------------------------|--------------------------|
--1--1--1--1--3--3--3--3--|--5--5--5--5--5--5--5--5--|
--------------------------|--------------------------|



                                                      
--------------------------|--------------------------|
--------------------------|--------------------------|
--1--1--1--1--3--3--3--3--|--5--5--5--5--5--5--5--5--|
--------------------------|--------------------------|



                                                      
--------------------------|--------------------------|
--------------------------|--------------------------|
--1--1--1--1--3--3--3--3--|--5--5--5--5--5--5--5--5--|
--------------------------|--------------------------|



                                                      
--------------------------|--------------------------|
--------------------------|--------------------------|
--------------6--6--6--6--|--5--5--5--5--5--5--3--3--|
--4--4--4--4--------------|--------------------------|



                                                      
--------------------------|--------------------------|
--------------------------|--------------------------|
--1--1--1--1--3--3--3--3--|--5--5--5--5--5--5--5--5--|
--------------------------|--------------------------|



                                                      
--------------------------|--------------------------|
--------------------------|--------------------------|
--------------6--6--6--6--|--5--5--5--5--5--5--3--3--|
--4--4--4--4--------------|--------------------------|



                                                      
--------------------------|--------------------------|
--------------------------|--------------------------|
--1--1--1--1--3--3--3--3--|--5--5--5--5--5--5--5--5--|
--------------------------|--------------------------|



                                                      
--------------------------|--------------------------|
--------------------------|--------------------------|
--------------6--6--6--6--|--5--5--5--5--5--5--3--3--|
--4--4--4--4--------------|--------------------------|



                                                      
--------------------------|--------------------------|
--------------------------|--------------------------|
--1--1--1--1--3--3--3--3--|--5--5--5--5--5--5--5--5--|
--------------------------|--------------------------|



                                                      
--------------------------|--------------------------|
--------------------------|--------------------------|
--------------6--6--6--6--|--5--5--5--5--5--5--3--3--|
--4--4--4--4--------------|--------------------------|



                                                      
--------------------------|--------------------------|
--------------------------|--------------------------|
--------------2--2--2--2--|--3--3--3--3--5--5--5--5--|
--0--0--0--0--------------|--------------------------|



                                                      
--------------------------|--------------------------|
--------------------------|--------------------------|
--7--7--7--7--0--0--0--0--|--------------5--5--5--5--|
--------------------------|--3--3--3--3--------------|



                                                      
--------------------------|--------------------------|
--------------------------|--------------------------|
--------------2--2--2--2--|--3--3--3--3--5--5--5--5--|
--0--0--0--0--------------|--------------------------|



                                                                              
--------------------------|-----------------------|--------------------------|
--------------------------|-----------------------|--------------------------|
--7--7--7--7--0--0--0--0--|--------------5--------|-----------3----5----8----|
--------------------------|--3--3--3--3-----------|--0-----------------------|



                                                      
--------------------------|--------------------------|
--------------------------|--------------------------|
---------7-----5--7-------|--8--7-----7--------5--7--|
--0--0-----0--------0--0--|--------0-----0--0--------|



                                                      
--------------------------|--------------------------|
--------------------------|--------------------------|
--------7------5--7-------|--8--7-----7--------5--7--|
--0--0-----0--------0--0--|--------0-----0--0--------|



                                                      
--------------------------|--------------------------|
--------------------------|--------------------------|
--------------------------|--------------------------|
--0--0--0--0--0--0--0--0--|--0--0--0--0--0--0--0--0--|



                                                                           
--------------------------|--------------------|--------------------------|
--------------------------|--------------------|--------------------------|
--------------------------|--5--7--------------|--------------------------|
--0--0--0--0--0--0--0--0--|--------------------|--0--0--0--0--2--2--2--2--|



                                                           
--------------------------|-------------------------------|
--------------------------|-------------------------------|
--------------5--5--5--5--|--3--3-3-3--3-3-3--3-3-3-3-3-3-|
--3--3--3--3--------------|-------------------------------|



                                                           
-------------------------------|--------------------------|
-------------------------------|--------------------------|
--3--3-3-3--3-3-3--3-3-3-3-3-3-|--3--3--3--3--5--5--5--5--|
-------------------------------|--------------------------|


                                                              
--------------------------|----------------------------------|
--------------------------|----------------------------------|
--7--7--7--7--5--5--5--5--|--7-7-7-7-7-7-7-7-7-7-7-7-7-7-7-7-|
--------------------------|----------------------------------|



                                                              
----------------------------------|--------------------------|
----------------------------------|--------------------------|
--7-7-7-7-7-7-7-7-7-7-7-7-7-7-7-7-|--------------------------|
----------------------------------|--0--0--0--0--2--2--2--2--|



                                                           
--------------------------|-------------------------------|
--------------------------|-------------------------------|
--------------5--5--5--5--|--3--3-3-3--3-3-3--3-3-3-3-3-3-|
--3--3--3--3--------------|-------------------------------|



                                                           
-------------------------------|--------------------------|
-------------------------------|--------------------------|
--3--3-3-3--3-3-3--3-3-3-3-3-3-|--3--3--3--3--5--5--5--5--|
-------------------------------|--------------------------|



                                                              
--------------------------|----------------------------------|
--5--5--5--5--------------|----------------------------------|
--------------5--5--5--5--|--7-7-7-7-7-7-7-7-7-7-7-7-7-7-7--|
--------------------------|----------------------------------|



                                                                      
----------------------------------|----------------------------------|
----------------------------------|----------------------------------|
--7-7-7-7-7-7-7-7-7-7-7-7-7-7-7-7-|--7-7-7-7-7-7-7-7-7-7-7-7-7-7-7-7-|
----------------------------------|----------------------------------|



                                                                            
----------------------------------|---------------------|------------------|
----------------------------------|---------------------|------------------|
--7-7-7-7-7-7-7-7-7-7-7-7-7-7-7-7-|--7------5------3----|------------------|
----------------------------------|---------------------|------------------|



                     
-------------------||
-------------------||
--\7------7--------||
----------0--------||
I want to post or [tab]
guest
You may want to rate the tab now too:
select rating
Please do not post tabs as comments. Select "correction" instead!