Oops, an error
Loading. Please wait.

Needled 24 7 Bass Tab

ver4
ver4

Whole song

More versions @911Tabs.com
1,219 views 1 this week
no commentswrite comment
1 2 3 4 5
excellent!
x 2
Autoscroll
+/-
esc
set tempo
stop
Contributor
Tuning
D G C F A D
Hey! There's an official Ultimate Guitar app which is ideal
for learning songs when you're away from computer. Get the app
WARNING: You are trying to view
                                    content from Ultimate-Guitar.com
                                    in an unauthorized application,
                                    which is prohibited.

                                    Please use an official Ultimate
                                    Guitar Tabs application for iPhone,
                                    iPad or Android to access legitimate
                                    chords, guitar, bass, and drum tabs
                                    from Ultimate-Guitar.com database.

                                    Type "ultimate guitar tabs" in Apple
                                    App Store's or Android Market's
                                    search to find the application.
#----------------------------------PLEASE NOTE---------------------------------#
#This file is the author's own work and represents their interpretation of the #
#song. You may only use this file for private study, scholarship, or research. #
#------------------------------------------------------------------------------#

NEEDLED 24/7 (Bassline)
As recorded by Children of Bodom
(From the 2003 Album HATE CREW DEATHROLL)

Transcribed by Carl Stelcel
	

Words and Music by Children of Bodom

Gtr I (D G C F) - 'Electric Bass'
Gtr II (D G C F A D) - 'Strings'
Gtr III (D G C F A D) - 'Keyboard'

   Intro
    Fast Q=192                                1.
    F  E
   4/4
    Gtr II
     E  E Q  H      W             W            W
||--25-24---------|-------------|------------|-------||
||o---------------|-------------|------------|------o||
||--22-21---------|-------------|------------|-------||
||----------------|-------------|------------|-------||
||o-20-19---------|-------------|------------|------o||
||----------------|-------------|------------|-------||
|
|   Gtr I
|    E  E Q  H      H    E Q  E   q  H    Q    W
||----------------|-------------|------------|-------||
||o---------------|-------------|------------|------o||
||o---------------|-----------5-|------------|------o||
||---1--0---------|--------3----|-1----------|-------||


  2.
  Gtr I
       |-3-|
  H    Q Q Q   E E E S S S S S S E S S   S S S S E S S E Q  E
|------------|-------------------------|-----------------------|
|------------|-------------------------|-----------------------|
|-2----3-5-7-|-------------------------|--------------------5--|
|------------|-1-0-0-0-0-0-0-0-0-0-0-0-|-0-0-0-0-0-0-0-0-3-----|


  E E E S S S S S S E S S   E E E E Q   E E   E E E S S S S S S E S S
|-------------------------|-----------------|--------------------------|
|-------------------------|-----------------|--------------------------|
|-------------------------|-----7-5-7\--3-2-|--------------------------|
|-1-0-0-0-0-0-0-0-0-0-0-0-|-0-0-------------|-1-0-0-0-0-0-0-0-0-0-0-0--|


  S S S S E S S E Q  E   E E E S S S S S S E E   Q.   E +Q   Q
|----------------------|-----------------------|-----------------||
|----------------------|-----------------------|-----------------||
|--------------------5-|-----------------------|-2----3-(3)--5---||
|-0-0-0-0-0-0-0-0-3----|-1-0-0-0-0-0-0-0-0-0-0-|-----------------||


 Interlude
  N.C.
  Gtr III
                                                              ~~~~~~
  E E E E E E E E   E E E E E E E E   E E E E E E E E   E E E E +E  E E E
|-----5-----------|-----------------|---7-8-5-5-5-7-3-|-3-3-5-2-(2)---2---|
|-5-8---7-7-7-8-5-|-5-5-7-3-3-5-7-3-|-5---------------|-------------3---3-|
|-----------------|-----------------|-----------------|-------------------|
|-----------------|-----------------|-----------------|-------------------|
|-----------------|-----------------|-----------------|-------------------|
|-----------------|-----------------|-----------------|-------------------|
|
| Gtr I
| E E E E E E E E   E E E E E E E E   E E E E E E E E   E E E E  E  E E E
|-----------------|-----------------|-----------------|-------------------|
|-----------------|-----------------|-----------------|-------------------|
|---------2-2-2-2-|-3-3-3-3-5-5---5-|-----------------|-------------------|
|-0-0-0-0---------|-------------7---|-0-0-0-0-5-5-5-5-|-3-3-3-3--2--2-2-2-|


                                                                  ~~
  E E E E E E E E   E E E E E E E E   E E E E E E E E   E E E E E Q.
|-----5-----------|-----------------|---7-8-5-5-5-7-3-|-3-3-5-2-2-3------||
|-5-8---7-7-7-8-5-|-5-5-7-3-3-5-7-3-|-5---------------|------------------||
|-----------------|-----------------|-----------------|------------------||
|-----------------|-----------------|-----------------|------------------||
|-----------------|-----------------|-----------------|------------------||
|-----------------|-----------------|-----------------|------------------||
|
| E E E E E E E E   E E E E E E E E   E E E E E E E E   E E E E E E  E E
|-----------------|-----------------|-----------------|------------------||
|-----------------|-----------------|-----------------|------------------||
|---------2-2-2-2-|-3-3-3-3-5-5---5-|-7-7-7-7---------|------------------||
|-0-0-0-0---------|-------------7---|---------5-5-5-5-|-3-3-3-3-2-2--2-2-||


   First Verse
    F  E
    Gtr II
     E  E Q     H
||----------------------------|
||o-18-17---------------------|
||----------------------------|
||--15-14---------------------|
||o---------------------------|
||----------------------------|
|
|   Gtr I
|    E  E E S S S S S S E S S
||----------------------------|
||o---------------------------|
||o---------------------------|
||---1--0-0-0-0-0-0-0-0-0-0-0-|


                             F  E
  H              Q.      E    E  E Q     H
|---------------15------10-|----------------------------|
|--------------------------|-18-17----------------------|
|--------------------------|----------------------------|
|--------------------------|-15-14----------------------|
|--------------------------|----------------------------|
|--------------------------|----------------------------|
|
| S S S S E S S  E  E E  E    E  E E S S S S S S E S S
|--------------------------|----------------------------|
|--------------------------|----------------------------|
|------------------------5-|----------------------------|
|-0-0-0-0-0-0-0--0--3-2----|--1--0-0-0-0-0-0-0-0-0-0-0--|


                    A5/E C5/G   A5/E C5/G
  W                 H    H      H    H
|-----------------|-5----8----|-5----8----|
|-----------------|-5----8----|-5----8----|
|-----------------|-----------|-----------|
|-----------------|-----------|-----------|
|-----------------|-----------|-----------|
|-----------------|-----------|-----------|
|
| E E E E E E E E   H    H      H    H
|-----------------|-----------|-----------|
|-----------------|-----------|-----------|
|-------------3-2-|-0----3----|-0----3----|
|-0-0-0-0-0-0-----|-----------|-----------|


                             1.                  2.
  F  E
   E  E Q     H               W                   W
|---------------------------|------------------||-----------------||
|-18-17---------------------|-----------------o||-----------------||
|---------------------------|------------------||-----------------||
|-15-14---------------------|------------------||-----------------||
|---------------------------|-----------------o||-----------------||
|---------------------------|------------------||-----------------||
|
|  E  E E S S S S S S E S S   E E E E E E E E     E E E E E E E E
|---------------------------|------------------||-----------------||
|---------------------------|-----------------o||-9---9s8---------||
|---------------------------|-------------3-2-o||---7-----6-----7-||
|--1--0-0-0-0-0-0-0-0-0-0-0-|-0-0-0-0-0-0------||-----------7-8---||


   First Pre-Chorus
    N.C.
    Gtr III
    E E E E E E E E   E E E E E E E E   E E E E E E E E
||------------------|-----------------|-----------------|
||o-----------------|-----------------|-----------------|
||------------------|-----------------|-----------------|
||------2-------3-2-|-----2-0-3-2-0---|-----2-------3-2-|
||o-------2---------|---------------2-|-------2---------|
||--0-0-----0-0-----|-0-0-------------|-0-0-----0-0-----|
|
|   Gtr I
|   E E E E E E E E   E E E E E E E E   E E E E E E E E
||------------------|-----------------|-----------------|
||o-----------------|-----------------|-----------------|
||o-5-7-----7-5---7-|---5-----8---5-7-|-5-7-----7-5---7-|
||------0-0-----0---|-0---0-0---0-----|-----0-0-----0---|


 1.                  2.
  E E E E E E E E     E E E E E E E E
|------------------||-------------------||
|-----------------o||-------------------||
|------------------||-------------------||
|-----2-0-3-2-0----||-----2-0-3-2-0-----||
|---------------2-o||---------------2---||
|-0-0--------------||-0-0---------------||
|
| E E E E E E E E     E E E E E E E E
|------------------||-------------------||
|-----------------o||-------------------||
|---5-----8---5-7-o||---5-------5-------||
|-0---0-0---0------||-0---0-0-0---7-5---||


 Interlude
  N.C.
                                                              ~~~~~~
  E E E E E E E E   E E E E E E E E   E E E E E E E E   E E E E +E  E E E
|-----5-----------|-----------------|---7-8-5-5-5-7-3-|-3-3-5-2-(2)---2---|
|-5-8---7-7-7-8-5-|-5-5-7-3-3-5-7-3-|-5---------------|-------------3---3-|
|-----------------|-----------------|-----------------|-------------------|
|-----------------|-----------------|-----------------|-------------------|
|-----------------|-----------------|-----------------|-------------------|
|-----------------|-----------------|-----------------|-------------------|
|
| E E E E E E E E   E E E E E E E E   E E E E E E E E   E E E E  E  E E E
|-----------------|-----------------|-----------------|-------------------|
|-----------------|-----------------|-----------------|-------------------|
|---------2-2-2-2-|-3-3-3-3-5-5---5-|-----------------|-------------------|
|-0-0-0-0---------|-------------7---|-0-0-0-0-5-5-5-5-|-3-3-3-3--2--2-2-2-|


  E E E E E E E E   E E E E E E E E   E E E E E E E E   E E E E H
|-----5-----------|-----------------|---7-8-5-5-5-7-3-|-3-3-5-2---------||
|-5-8---7-7-7-8-5-|-5-5-7-3-3-5-7-3-|-5---------------|-----------------||
|-----------------|-----------------|-----------------|-----------------||
|-----------------|-----------------|-----------------|-----------------||
|-----------------|-----------------|-----------------|-----------------||
|-----------------|-----------------|-----------------|-----------------||
|
| E E E E E E E E   E E E E E E E E   E E E E E E E E   E E E E E E E E
|-----------------|-----------------|-----------------|-----------------||
|-----------------|-----------------|-----------------|-----------------||
|---------2-2-2-2-|-3-3-3-3-5-5---5-|-7-7-7-7---------|-----------------||
|-0-0-0-0---------|-------------7---|---------5-5-5-5-|-3-3-3-3-2-2-2-2-||


 Second Pre-Chorus
  N.C.
  E E E E E E E E   E E E E E E E E   E E E E E E E E   E E E E E E E E
|-----------------|-----------------|-----------------|-----------------|
|-----------------|-----------------|-----------------|-----------------|
|-----------------|-----------------|-----------------|-----------------|
|-----2-------3-2-|-----2-0-3-2-0---|-----2-------3-2-|-----2-0-3-2-0---|
|-------2---------|---------------2-|-------2---------|---------------2-|
|-0-0-----0-0-----|-0-0-------------|-0-0-----0-0-----|-0-0-------------|
|
| E E E E E E E E   E E E E E E E E   E E E E E E E E   E E E E E E E E
|-----------------|-----------------|-----------------|-----------------|
|-----------------|-----------------|-----------------|-----------------|
|-5-7-----7-5---7-|---5-----8---5-7-|-5-7-----7-5---7-|---5-----8---5-7-|
|-----0-0-----0---|-0---0-0---0-----|-----0-0-----0---|-0---0-0---0-----|


  E E E E E E E E   E E E E E E E E
|-----------------|-----------------|
|-----------------|-----------------|
|-----------------|-----------------|
|-----2-------3-2-|-----2-0-3-2-0---|
|-------2---------|---------------2-|
|-0-0-----0-0-----|-0-0-------------|
|
| E E E E E E E E   E E E E E E E E
|-----------------|-----------------|
|-----------------|-----------------|
|-5-7-----7-5---7-|---5-----8---5-7-|
|-----0-0-----0---|-0---0-0---0-----|


  E E E E E E E E    E  E  E  E  E  E  E  E
|-----------------|-------------------------||
|-----------------|-------------------------||
|-----------------|-------------------------||
|-----2-------3-2-|--------2--0--3--2--0----||
|-------2---------|-----------------------2-||
|-0-0-----0-0-----|--0--0-------------------||
|
| E E E E E E Q      E  E  E  E  E  E  E  E
|-----------------|-------------------------||
|-----------------|-------------------------||
|-5-7-----7-5-7S==|=14-14-14-14-14-14-14-14-||
|-----0-0---------|-------------------------||


 Chorus
  $
  G       F#m       G       F#m
  Gtr II
  H       H         H       H
|-7-------5-------|-7-------5-------|
|-8-------7-------|-8-------7-------|
|-----------------|-----------------|
|-----------------|-----------------|
|-----------------|-----------------|
|-----------------|-----------------|
|
| Gtr I
| E E E E E E E E   E E E E E E E E
|-----------------|-----------------|
|-----------------|-----------------|
|-----------------|---------5-5-5-5-|
|-0-0-0-0-2-2-2-2-|-3-3-3-3---------|


  C           D               Em          F#m
  H           H               H           H
|-0-----------2-------------|-3-----------5---------------|
|-1-----------3-------------|-5-----------7---------------|
|---------------------------|-----------------------------|
|---------------------------|-----------------------------|
|---------------------------|-----------------------------|
|---------------------------|-----------------------------|
|
| E S S E S S E S S S S S S   E S S E S S E S S S S S S
|---------------------------|-----------------------------|
|---------------------------|-----------------------------|
|-3-3-3-3-3-3-3-3-3-3-5-3-2-|-3-3-3-3-3-3-3-3-3-3-3-3-3---|
|---------------------------|-----------------------------|


  G       F#m       Em      D         G/E
  H       H         H       H         W
|-7-------5-------|-3-------2-------|-7-------------------------------|
|-8-------7-------|-5-------3-------|-8-------------------------------|
|-----------------|-----------------|-9-------------------------------|
|-----------------|-----------------|---------------------------------|
|-----------------|-----------------|---------------------------------|
|-----------------|-----------------|---------------------------------|
|
| E E E E E E E E   E E E E E E E E   S S S S S S S S S S S S S S S S
|-----------------|-----------------|---------------------------------|
|-----------------|-----------------|---------------------------------|
|-3-3-3-3-5-5-5-5-|-7-7-7-7-5-5-5-5-|-7-7-7-7-7-7-7-7-7-7-7-7-7-8-7-5-|
|-----------------|-----------------|---------------------------------|


  +W
|-(7)----------------------------------|
|-(8)----------------------------------|
|-(9)----------------------------------|
|--------------------------------------|
|--------------------------------------|
|--------------------------------------|
|
|  S  S S S S S S S S S S S S S S S
|--------------------------------------|
|--------------------------------------|
|--7--7-7-7-7-7-7-7-7-7-7-7-7-7-7-7----|
|--------------------------------------|


  G       F#m       G       F#m
  H       H         H       H
|-7-------5-------|-7-------5-------|
|-8-------7-------|-8-------7-------|
|-----------------|-----------------|
|-----------------|-----------------|
|-----------------|-----------------|
|-----------------|-----------------|
|
| E E E E E E E E   E E E E E E E E
|-----------------|-----------------|
|-----------------|-----------------|
|-----------------|---------5-5-5-5-|
|-0-0-0-0-2-2-2-2-|-3-3-3-3---------|


  C           D               Em          F#m
  H           H               H           H
|-0-----------2-------------|-3-----------5---------------|
|-1-----------3-------------|-5-----------7---------------|
|---------------------------|-----------------------------|
|---------------------------|-----------------------------|
|---------------------------|-----------------------------|
|---------------------------|-----------------------------|
|
| E S S E S S E S S S S S S   E S S E S S E S S S S S S
|---------------------------|-----------------------------|
|---------------------------|-----------------------------|
|-3-3-3-3-3-3-3-3-3-3-5-3-2-|-3-3-3-3-3-3-3-3-3-3-3-3-3---|
|---------------------------|-----------------------------|


  G       F#m       Em      D
  H       H         H       H
|-7-------5-------|-3-------2-------|
|-8-------7-------|-5-------3-------|
|-----------------|-----------------|
|-----------------|-----------------|
|-----------------|-----------------|
|-----------------|-----------------|
|
| E E E E E E E E   E E E E E E E E
|-----------------|-----------------|
|-----------------|-----------------|
|-3-3-3-3-5-5-5-5-|-7-7-7-7-5-5-5-5-|
|-----------------|-----------------|


                             To Coda
                                    &
  G/E
  W                                 +W
|-7-------------------------------|-(7)-------------||
|-8-------------------------------|-(8)-------------||
|-9-------------------------------|-(9)-------------||
|---------------------------------|-----------------||
|---------------------------------|-----------------||
|---------------------------------|-----------------||
|
| S S S S S S S S S S S S S S S S    Q   +Q    H
|---------------------------------|-----------------||
|---------------------------------|-----------------||
|-7-7-7-7-7-7-7-7-7-7-7-7-7-8-7-5-|--7---(7)\-------||
|---------------------------------|-----------------||


 First Keyboard Solo
  N.C.
  Gtr III
   \1/
   H                  S  S  S  S  S  S  S  S
|-15-----------------12-14-15-12-14-15-17-14-|
|--------------------------------------------|
|--------------------------------------------|
|--------------------------------------------|
|--------------------------------------------|
|--------------------------------------------|
|
| Gtr I
|  S   S S S S S S S  S  S  S  S  S  S  S  S
|--------------------------------------------|
|--------------------------------------------|
|--------------------------------------------|
|--0---0-0-0-0-0-0-0--0--0--0--0--0--0--0--0-|


   S  S  S  S  S  S  S  S  S  S  S  S  S  S  S  S
|-15-17-19-15-17-19-20-17-19-20-22-24-26-24-22-20-|
|-------------------------------------------------|
|-------------------------------------------------|
|-------------------------------------------------|
|-------------------------------------------------|
|-------------------------------------------------|
|
|  S  S  S  S  S  S  S  S  S  S  S  S  Q
|-------------------------------------------------|
|-------------------------------------------------|
|--------------------------------------7----------|
|--0--0--0--0--0--0--0--0--0--0--0--0-------------|


   S  S  S  S  S  S  S  S  S  S  S  S  S  S  S  S
|-22-20-19-17-20-19-17-15-19-17-15-14-17-15-14-12-|
|-------------------------------------------------|
|-------------------------------------------------|
|-------------------------------------------------|
|-------------------------------------------------|
|-------------------------------------------------|
|
|  S  S  S  S  S  S  S  S  S  S  S  S  S  S  S  S
|-------------------------------------------------|
|-------------------------------------------------|
|-------------------------------------------------|
|--0--0--0--0--0--0--0--0--0--0--0--0--0--0--0--0-|


   s  s  s  s  s  s  s  s  s  s  s  s  s  s  s  s
|-15-15-15-15-15-15-15-15-15-15-15-15-15-15-15-15-|
|-------------------------------------------------|
|-------------------------------------------------|
|-------------------------------------------------|
|-------------------------------------------------|
|-------------------------------------------------|
|
|  S  S  S  S  S  S  S  S  S  S  S  S  Q
|-------------------------------------------------|
|-------------------------------------------------|
|--------------------------------------8----------|
|--0--0--0--0--0--0--0--0--0--0--0--0-------------|


   S  S  S  S  S  S  S  S  S  S  S  S  S  S  S  S
|-15-14-15-14-17-15-14-15-17-15-17-15-19-17-15-17-|
|-------------------------------------------------|
|-------------------------------------------------|
|-------------------------------------------------|
|-------------------------------------------------|
|-------------------------------------------------|
|
|  S  S  S  S  S  S  S  S  S  S  S  S  S  S  S  S
|-------------------------------------------------|
|-------------------------------------------------|
|-------------------------------------------------|
|--0--0--0--0--0--0--0--0--0--0--0--0--0--0--0--0-|


   S  S  S  S  S  S  S  S  S  S  S  S  S  S  S  S
|-19-17-19-17-20-19-17-19-20-22-24-22-20-19-17-15-|
|-------------------------------------------------|
|-------------------------------------------------|
|-------------------------------------------------|
|-------------------------------------------------|
|-------------------------------------------------|
|
|  S  S  S  S  S  S  S  S  S  S  S  S  Q
|-------------------------------------------------|
|-------------------------------------------------|
|--------------------------------------7----------|
|--0--0--0--0--0--0--0--0--0--0--0--0-------------|


                                                     ~~~~~~~~~
  S S S S S S S S S  S  S  S  S  S  S  S    E  E  E  Q    +E   E  E
|-0-2-3-5-2-3-5-7-8-10-12-14-15-17-19-20-|-12-15-17-14---(14)-15-12-||
|----------------------------------------|--------------------------||
|----------------------------------------|--------------------------||
|----------------------------------------|--------------------------||
|----------------------------------------|--------------------------||
|----------------------------------------|--------------------------||
|
| S S S S S S S S S  S  S  S  S  S  S  S    Q     Q    Q       Q
|----------------------------------------|--------------------------||
|----------------------------------------|--------------------------||
|----------------------------------------|--3----------5------------||
|-0-0-0-0-0-0-0-0-0--0--0--0--0--0--0--0-|--------3------------5----||


   Second Verse
    F     E
    Gtr III
     +H            H               W
||--(12)\------------------------|--------------------------|
||o------------------------------|--------------------------|
||-------------------------------|--------------------------|
||-------------------------------|--------------------------|
||o------------------------------|--------------------------|
||-------------------------------|--------------------------|
|
|   Gtr II
|     E    E Q     H               H              Q.      E
||-------------------------------|---------------15------10-|
||o--18---17---------------------|--------------------------|
||-------------------------------|--------------------------|
||---15---14---------------------|--------------------------|
||o------------------------------|--------------------------|
||-------------------------------|--------------------------|
|
|   Gtr I
|     E    E E S S S S S S E S S   S S S S E S S  E  E E  E
||-------------------------------|--------------------------|
||o------------------------------|--------------------------|
||o------------------------------|------------------------5-|
||----1----0-0-0-0-0-0-0-0-0-0-0-|-0-0-0-0-0-0-0--0--3-2----|


  F  E
   W                          W
|---------------------------|-----------------|
|---------------------------|-----------------|
|---------------------------|-----------------|
|---------------------------|-----------------|
|---------------------------|-----------------|
|---------------------------|-----------------|
|
|  E  E Q     H               W
|---------------------------|-----------------|
|-18-17---------------------|-----------------|
|---------------------------|-----------------|
|-15-14---------------------|-----------------|
|---------------------------|-----------------|
|---------------------------|-----------------|
|
|  E  E E S S S S S S E S S   E E E E E E E E
|---------------------------|-----------------|
|---------------------------|-----------------|
|---------------------------|-------------3-2-|
|--1--0-0-0-0-0-0-0-0-0-0-0-|-0-0-0-0-0-0-----|


  A5/E C5/G   A5/E C5/G   F  E
  Gtr II
  H    H      H    H       E  E Q     H
|-5----8----|-5----8----|---------------------------|
|-5----8----|-5----8----|-18-17---------------------|
|-----------|-----------|---------------------------|
|-----------|-----------|-15-14---------------------|
|-----------|-----------|---------------------------|
|-----------|-----------|---------------------------|
|
| Gtr I
| H    H      H    H       E  E E S S S S S S E S S
|-----------|-----------|---------------------------|
|-----------|-----------|---------------------------|
|-0----3----|-0----3----|---------------------------|
|-----------|-----------|--1--0-0-0-0-0-0-0-0-0-0-0-|


 1.                  2.
                               D.S. al Coda
  W                    W
|------------------||---------------------------||
|-----------------o||---------------------------||
|------------------||---------------------------||
|------------------||---------------------------||
|-----------------o||---------------------------||
|------------------||---------------------------||
|
| E E E E E E E E      E  E  E  E  E  E  E  E
|------------------||---------------------------||
|-----------------o||---------------------------||
|-------------3-2So||=14-14-14-14-14-14-14-14---||
|-0-0-0-0-0-0------||---------------------------||


 Interlude Part 1
  &
  Gtr I
                       |-3-|                        |-3-|
  Q  Q  E Q.     Q  Q  Q Q Q   Q  Q  E Q.     Q  Q  Q Q Q
|--------------|-------------|--------------|-------------|
|--------------|-------------|--------------|-------------|
|-3------------|-3-------1-1-|-3------------|-3-----4-3-1-|
|---------4----|-------------|---------4----|-------------|


  W          +W           W          +H     H
|----------|------------|----------|-------------|
|----------|------------|----------|-------------|
|-3--------|-(3)--------|-3--------|-(3)----1----|
|----------|------------|----------|-------------|


  W          +W           H.      Q    +E  Q.   Q  Q
|----------|------------|------------|----------------||
|----------|------------|------------|----------------||
|-3--------|-(3)--------|-1-------1--|-(1)-1----1--1--||
|----------|------------|------------|----------------||


   Interlude Part 2
    N.C.
    Gtr III
    E E E E E E E E   E E E E E E E E   E E E E E E E E   E E E E E E E E
||--1-------1---3-8-|-5-------5---3---|-1-------1---3-8-|-5-------5---3-----||
||o---3-3-3---3-----|---3-3-3---3---3-|---3-3-3---3-----|---3-3-3---3---3--o||
||------------------|-----------------|-----------------|-------------------||
||------------------|-----------------|-----------------|-------------------||
||o-----------------|-----------------|-----------------|------------------o||
||------------------|-----------------|-----------------|-------------------||
|
|   Gtr I
|   E E E E E E E E   E E E E E E E E   E E E E E E E E   E E E E E E E E
||------------------|-----------------|-----------------|-------------------||
||o-----------------|-----------------|-----------------|------------------o||
||o-1-1-1-1-3-3-3-3-|-5-5-5-5-5-5-5-5-|-1-1-1-1-3-3-3-3-|-5-5-5-5-5-5-5-5--o||
||------------------|-----------------|-----------------|-------------------||


 Guitar Solo
  Gtr I
  E E E E E E E E   E E E E E E E E   E E E E E E E E   E E E E E E E E
|-----------------|-----------------|-----------------|-----------------|
|-----------------|-----------------|-----------------|-----------------|
|-1-1-1-1-3-3-3-3-|-5-5-5-5-5-5-5-5-|---------6-6-6-5-|-5-5-5-5-3-3-3-3-|
|-----------------|-----------------|-4-4-4-4---------|-----------------|


  E E E E E E E E   E E E E E E E E   E E E E E E E E   E E E E E E E E
|-----------------|-----------------|-----------------|-----------------||
|-----------------|-----------------|-----------------|-----------------||
|-1-1-1-1-3-3-3-3-|-5-5-5-5-5-5-5-5-|---------6-6-6-5-|-5-5-5-5-3-3-3-3-||
|-----------------|-----------------|-4-4-4-4---------|-----------------||


 Second Keyboard Solo
  N.C.
  Gtr III
                    ~~~~~~~~~
                              |---3---|
  E E  E E  E E  E  E    +E   E  E    E  E  E  E  E  E
|-6-8-10-8-12-8-13-10-|-(10)-11-12---13-15-17-18-19-20-|
|---------------------|--------------------------------|
|---------------------|--------------------------------|
|---------------------|--------------------------------|
|---------------------|--------------------------------|
|---------------------|--------------------------------|
|
| Gtr I
| E E  E E  E E  E  E     E   E    E     E  E  E  E  E
|---------------------|--------------------------------|
|---------------------|--------------------------------|
|-1-1--1-1--3-3--3--3-|---5---5----5-----5--5--5--5--5-|
|---------------------|--------------------------------|


                        ~~
   E  E  E  E  E  E  E  E
|-18-20-22-18-22-24-25-22--|
|--------------------------|
|--------------------------|
|--------------------------|
|--------------------------|
|--------------------------|
|
|  E  E  E  E  E  E  E  E
|--------------------------|
|--------------------------|
|--------------6--6--6--5--|
|--4--4--4--4--------------|


    ~~~~
   +E   S  S  S  S  S  S  S  S  S  S  S  S  S  S
|-(22)-24-25-27-29-27-25-24-22-20-18-20-22-20-18-|
|------------------------------------------------|
|------------------------------------------------|
|------------------------------------------------|
|------------------------------------------------|
|------------------------------------------------|
|
|   E   E     E     E     E     E     E     E
|------------------------------------------------|
|------------------------------------------------|
|---5---5-----5-----5-----3-----3-----3-----3----|
|------------------------------------------------|


   S  S  S  S  S  S  S  S  S S S S S S S S
|-17-15-13-12-13-15-13-12-10-8-6-5-6-8-6-5--|
|-------------------------------------------|
|-------------------------------------------|
|-------------------------------------------|
|-------------------------------------------|
|-------------------------------------------|
|
|  E     E     E     E     E   E   E   E
|-------------------------------------------|
|-------------------------------------------|
|--1-----1-----1-----1-----3---3---3---3----|
|-------------------------------------------|


  S S S S S S S S S S S S S S S S
|-3-1-0---0-1-0-------------------|
|-------3-------3-1---------------|
|-------------------3-2-0-2-3-2-0-|
|---------------------------------|
|---------------------------------|
|---------------------------------|
|
| E   E   E   E   E   E   E   E
|---------------------------------|
|---------------------------------|
|-5---5---5---5---5---5---5---5---|
|---------------------------------|


                     \0.5/
  E E  E  E E  E  E  E        +H.            +Q
|-6-8-10-11-8-12-13-10-----|-(10)-----------(10)\----||
|--------------------------|-------------------------||
|--------------------------|-------------------------||
|--------------------------|-------------------------||
|--------------------------|-------------------------||
|--------------------------|-------------------------||
|
| E E  E  E E  E  E  E         E  E E E E E   E   E
|--------------------------|-------------------------||
|--------------------------|-------------------------||
|-----------6--6--6--5-----|---5--5-5-5-3-3---3---3--||
|-4-4--4--4----------------|-------------------------||


 Interlude
  N.C.
                                                              ~~~~~~  ~
  E E E E E E E E   E E E E E E E E   E E E E E E E E   E E E E +E  E E E
|-----5-----------|-----------------|---7-8-5-5-5-7-3-|-3-3-5-2-(2)-3-2---|
|-5-8---7-7-7-8-5-|-5-5-7-3-3-5-7-3-|-5---------------|-----------------3-|
|-----------------|-----------------|-----------------|-------------------|
|-----------------|-----------------|-----------------|-------------------|
|-----------------|-----------------|-----------------|-------------------|
|-----------------|-----------------|-----------------|-------------------|
|
| E E E E E E E E   E E E E E E E E   E E E E E E E E   E E E E  E  E E E
|-----------------|-----------------|-----------------|-------------------|
|-----------------|-----------------|-----------------|-------------------|
|---------2-2-2-2-|-3-3-3-3-5-5---5-|-----------------|-------------------|
|-0-0-0-0---------|-------------7---|-0-0-0-0-5-5-5-5-|-3-3-3-3--2--2-2-2-|


                                                                  ~~
  E E E E E E E E   E E E E E E E E   E E E E E E E E   E E E E E Q.
|-----5-----------|-----------------|---7-8-5-5-5-7-3-|-3-3-5-2-2-3------|
|-5-8---7-7-7-8-5-|-5-5-7-3-3-5-7-3-|-5---------------|------------------|
|-----------------|-----------------|-----------------|------------------|
|-----------------|-----------------|-----------------|------------------|
|-----------------|-----------------|-----------------|------------------|
|-----------------|-----------------|-----------------|------------------|
|
| E E E E E E E E   E E E E E E E E   E E E E E E E E   E E E E E E  E E
|-----------------|-----------------|-----------------|------------------|
|-----------------|-----------------|-----------------|------------------|
|---------2-2-2-2-|-3-3-3-3-5-5---5-|-----------------|------------------|
|-0-0-0-0---------|-------------7---|-0-0-0-0-5-5-5-5-|-3-3-3-3-2-2--2-2-|


                 Third Pre-Chorus
                  N.C.
  W               E E E E E E E E   E E E E E E E E
|--------------||-----------------|-----------------|
|--------------||-----------------|-----------------|
|--------------||-----------------|-----------------|
|--------------||-----2-------3-2-|-----2-0-3-2-0---|
|--------------||-------2---------|---------------2-|
|--------------||-0-0-----0-0-----|-0-0-------------|
|
|       |-3-|
| Q  Q  Q Q Q     E E E E E E E E   E E E E E E E E
|--------------||-----------------|-----------------|
|--------------||-----------------|-----------------|
|-------3-5-8--||-5-7-----7-5---7-|---5-----8---5-7-|
|-0------------||-----0-0-----0---|-0---0-0---0-----|


  E E E E E E E E   E E E E E E E E
|-----------------|-----------------|
|-----------------|-----------------|
|-----------------|-----------------|
|-----2-------3-2-|-----2-0-3-2-0---|
|-------2---------|---------------2-|
|-0-0-----0-0-----|-0-0-------------|
|
| E E E E E E E E   E E E E E E E E
|-----------------|-----------------|
|-----------------|-----------------|
|-5-7-----7-5---7-|---5-----8---5-7-|
|-----0-0-----0---|-0---0-0---0-----|


  E E E E E E E E   E E E E E E E E
|-----------------|-----------------|
|-----------------|-----------------|
|-----------------|-----------------|
|-----2-------3-2-|-----2-0-3-2-0---|
|-------2---------|---------------2-|
|-0-0-----0-0-----|-0-0-------------|
|
| E E E E E E E E   E E E E E E E E
|-----------------|-----------------|
|-----------------|-----------------|
|-5-7-----7-5---7-|---5-----8---5-7-|
|-----0-0-----0---|-0---0-0---0-----|


  E E E E E E E E   E E E E E E E E   E E Q  H
|-----------------|-----------------|-------------||
|-----------------|-----------------|-------------||
|-----------------|-----------------|-------------||
|-----2-------3-2-|-----2-0-3-2-0---|-------------||
|-------2---------|---------------2-|-5-7---------||
|-0-0-----0-0-----|-0-0-------------|-------------||
|
| E E E E E E E E   E E E E E E E E   E E Q  H
|-----------------|-----------------|-------------||
|-----------------|-----------------|-------------||
|-5-7-----7-5---7-|---5-----8---5-7-|-5-----------||
|-----0-0-----0---|-0---0-0---0-----|---0---------||


 Chorus
  G       F#m       G       F#m
  Gtr II
  H       H         H       H
|-7-------5-------|-7-------5-------|
|-8-------7-------|-8-------7-------|
|-----------------|-----------------|
|-----------------|-----------------|
|-----------------|-----------------|
|-----------------|-----------------|
|
| Gtr I
| E E E E E E E E   E E E E E E E E
|-----------------|-----------------|
|-----------------|-----------------|
|-----------------|---------5-5-5-5-|
|-0-0-0-0-2-2-2-2-|-3-3-3-3---------|


  C           D               Em          F#m
  H           H               H           H
|-0-----------2-------------|-3-----------5---------------|
|-1-----------3-------------|-5-----------7---------------|
|---------------------------|-----------------------------|
|---------------------------|-----------------------------|
|---------------------------|-----------------------------|
|---------------------------|-----------------------------|
|
| E S S E S S E S S S S S S   E S S E S S E S S S S S S
|---------------------------|-----------------------------|
|---------------------------|-----------------------------|
|-3-3-3-3-3-3-3-3-3-3-5-3-2-|-3-3-3-3-3-3-3-3-3-3-3-3-3---|
|---------------------------|-----------------------------|


  G       F#m       Em      D         G/E
  H       H         H       H         W
|-7-------5-------|-3-------2-------|-7-------------------------------|
|-8-------7-------|-5-------3-------|-8-------------------------------|
|-----------------|-----------------|-9-------------------------------|
|-----------------|-----------------|---------------------------------|
|-----------------|-----------------|---------------------------------|
|-----------------|-----------------|---------------------------------|
|
| E E E E E E E E   E E E E E E E E   S S S S S S S S S S S S S S S S
|-----------------|-----------------|---------------------------------|
|-----------------|-----------------|---------------------------------|
|-3-3-3-3-5-5-5-5-|-7-7-7-7-5-5-5-5-|-7-7-7-7-7-7-7-7-7-7-7-7-7-8-7-5-|
|-----------------|-----------------|---------------------------------|


  +W
|-(7)----------------------------------|
|-(8)----------------------------------|
|-(9)----------------------------------|
|--------------------------------------|
|--------------------------------------|
|--------------------------------------|
|
|  S  S S S S S S S S S S S S S S S
|--------------------------------------|
|--------------------------------------|
|--7--7-7-7-7-7-7-7-7-7-7-7-7-7-7-7----|
|--------------------------------------|


  G       F#m       G       F#m
  H       H         H       H
|-7-------5-------|-7-------5-------|
|-8-------7-------|-8-------7-------|
|-----------------|-----------------|
|-----------------|-----------------|
|-----------------|-----------------|
|-----------------|-----------------|
|
| E E E E E E E E   E E E E E E E E
|-----------------|-----------------|
|-----------------|-----------------|
|-----------------|---------5-5-5-5-|
|-0-0-0-0-2-2-2-2-|-3-3-3-3---------|


  C           D               Em          F#m
  H           H               H           H
|-0-----------2-------------|-3-----------5---------------|
|-1-----------3-------------|-5-----------7---------------|
|---------------------------|-----------------------------|
|---------------------------|-----------------------------|
|---------------------------|-----------------------------|
|---------------------------|-----------------------------|
|
| E S S E S S E S S S S S S   E S S E S S E S S S S S S
|---------------------------|-----------------------------|
|---------------------------|-----------------------------|
|-3-3-3-3-3-3-3-3-3-3-5-3-2-|-3-3-3-3-3-3-3-3-3-3-3-3-3---|
|---------------------------|-----------------------------|


  G       F#m       Em      D
  H       H         H       H
|-7-------5-------|-3-------2-------|
|-8-------7-------|-5-------3-------|
|-----------------|-----------------|
|-----------------|-----------------|
|-----------------|-----------------|
|-----------------|-----------------|
|
| E E E E E E E E   E E E E E E E E
|-----------------|-----------------|
|-----------------|-----------------|
|-3-3-3-3-5-5-5-5-|-7-7-7-7-5-5-5-5-|
|-----------------|-----------------|


  G/E
  W                                 +W
|-7-------------------------------|-(7)-------------||
|-8-------------------------------|-(8)-------------||
|-9-------------------------------|-(9)-------------||
|---------------------------------|-----------------||
|---------------------------------|-----------------||
|---------------------------------|-----------------||
|
| S S S S S S S S S S S S S S S S    Q   +Q    H
|---------------------------------|-----------------||
|---------------------------------|-----------------||
|-7-7-7-7-7-7-7-7-7-7-7-7-7-8-7-5-|--7---(7)\-------||
|---------------------------------|-----------------||


 Outro
  +W                                  +W
|-(7)-------------------------------|-(7)-------------------------------|
|-(8)-------------------------------|-(8)-------------------------------|
|-(9)-------------------------------|-(9)-------------------------------|
|-----------------------------------|-----------------------------------|
|-----------------------------------|-----------------------------------|
|-----------------------------------|-----------------------------------|
|
|  S  S S S S S S S S S S S S S S S    S  S S S S S S S S S S S S S S S
|-----------------------------------|-----------------------------------|
|-----------------------------------|-----------------------------------|
|--7--7-7-7-7-7-7-7-7-7-7-7-7-7-7-7-|--7--7-7-7-7-7-7-7-7-7-7-7-7-7-7-7-|
|-----------------------------------|-----------------------------------|


       D    C                            E5
  Q  E E Q  Q    +W               H       Q  Q
|-7----5----3--|-(3)-----------|---------12-------*|
|-8----7----5--|-(5)-----------|---------12-------*|
|-9----7----5--|-(5)-----------|------------------*|
|--------------|---------------|---------14-------*|
|--------------|---------------|------------------*|
|--------------|---------------|------------------*|
|
| Q  E E Q  Q    +H     Q   Q     Q   Q   Q  Q
|--------------|---------------|------------------*|
|-9----7----5--|-(5)-----------|------------------*|
|-7----5----3--|-(3)-----------|------------------*|
|--------------|--------4s=17--|-12--10---0-------*|



Duration Legend
---------------
W - whole; H - half; Q - quarter; E - 8th; S - 16th; T - 32nd; X - 64th; a - acciaccatura
+ - note tied to previous; . - note dotted; .. - note double dotted
Uncapitalized letters represent notes that are staccato (1/2 duration)
Irregular groupings are notated above the duration line
Duration letters will always appear directly above the note/fret number it represents the
duration for.  Duration letters with no fret number below them represent rests.  Multi-
bar rests are notated in the form Wxn, where n is the number of bars to rest for.  Low
melody durations appear below the staff

Tablature Legend
----------------
 h   - hammer-on
 p   - pull-off
 b   - bend
 pb  - pre-bend
 r   - bend release (if no number after the r, then release immediately)
 /\  - slide into or out of (from/to "nowhere")
 s   - legato slide
 S   - shift slide
 - natural harmonic
[n]  - artificial harmonic
n(n) - tapped harmonic
 ~   - vibrato
 tr  - trill
 T   - tap
 TP  - trem. picking
 PM  - palm muting
\n/  - tremolo bar dip; n = amount to dip
 \n  - tremolo bar down
 n/  - tremolo bar up
/n\  - tremolo bar inverted dip
 =   - hold bend; also acts as connecting device for hammers/pulls
 <> - volume swell (louder/softer)
 x   - on rhythm slash represents muted slash
 o   - on rhythm slash represents single note slash

Misc Legend
-----------
 |  - bar
||  - double bar
||o - repeat start
o|| - repeat end
*|  - double bar (ending)
 :  - bar (freetime)
 $  - Segno
 &  - Coda
Tempo markers -  = BPM(8/16=s8/s16), where s8 = swing 8ths, s16 = swing 16ths

comments
We did not receive enough feedback on this tab! Please rate:
print report bad tab
1 2 3 4 5
I want to post or [tab]
guest
You may want to rate the tab now too:
select rating
Please do not post tabs as comments. Select "correction" instead!