Oops, an error
Loading. Please wait.

Silent Night Bodom Night Bass Tab

ver1
ver1

Whole song

More versions @911Tabs.com
4,628 views 3 this week
3 commentsread comments
1 2 3 4 5
excellent!
x 4
Autoscroll
+/-
esc
set tempo
stop
Contributor
Hey! There's an official Ultimate Guitar app which is ideal
for learning songs when you're away from computer. Get the app
WARNING: You are trying to view
                                    content from Ultimate-Guitar.com
                                    in an unauthorized application,
                                    which is prohibited.

                                    Please use an official Ultimate
                                    Guitar Tabs application for iPhone,
                                    iPad or Android to access legitimate
                                    chords, guitar, bass, and drum tabs
                                    from Ultimate-Guitar.com database.

                                    Type "ultimate guitar tabs" in Apple
                                    App Store's or Android Market's
                                    search to find the application.
     
RiffA
|----------------|----------------|----------------|----------------||
|----------------|----------------|----------------|----------------||
|-777-777-777-777|-777-777-10--9-- 7---5----7------ ----------------     
|----------------|----------------|----------------|----------------||

|----------------|----------------|----------------|----------------||
|----------------|----------------|----------------|----------------||
|-777-777-777-777|-777-777-7--5---|3------------5--|---7------------||
|----------------|----------------|-----3----7-----|----------------||
                                                      (end of riff A)

|----------------|----------------|----------------|----------------||
|*---------------|----------------|----------------|----------------||
|*7-7-7-7-7-7-7-7|-7-7-7-7-7-7-7-7|7-7---10--9---7-|--5-----7-------||
|----------------|----------------|----------------|----------------||
                                                    1.
|----------------|----------------|----------------|----------------||
|----------------|----------------|----------------|---------------*|
|-7-7-7-7-7-7-7-7|-7-7-7-7-7-7-7-7|7-7-7---5-----3-|---5----7------*||
|----------------|----------------|----------------|----------------||
2.
|----------------|----------------||
|----------------|----------------||
|--3------5------|-7--------------||
|----------------|----------------||

Verse play riff a 1/2 times(=12 bars)
|----------------|----------------|----------------|----------------||
|----------------|----------------|----------------|----------------||
|-777-777-777-777|-777-777-777-777|----------------|----------------||
|----------------|----------------|--0--0--0---0--0|-0--------------||

|----------------|----------------|----------------|
|----------------|----------------|----------------|
|-7-------------7|----9-------7--6|----------------||
|----------------|----------------|----7-----------||

|----------------|----------------|----------------|----------------||
|----------------|5------7-----5--|4---------------|----------------||
|----7-----------|----------------|-----2---2--2-2-|----------------||
|----------------|----------------|----------------|----------------||

Riff B
|----------------|----------------|----------------|----------------||
|--------5-------|----7-----------|----------------|----------------||
|--3----------3--|-5------5--7----|777-777-7-7-7-7-|7-7-------------||
|----------------|----------------|----------------|----------------||

|----------------|----------------|----------------|----------------||
|--------5-------|----7-----------|----------------|----------------||
|--3----------3--|-5------5--7----|777-777-7-7-7-7-|7-7-------------||
|----------------|----------------|----------------|----------------||

|----------------|----------------|----------------|----------------||
|--------5-------|----7-----------|----------------|----------------||
|--3----------3--|-5------5--7----|777-777-7-7-7-7--7-7--------------
|----------------|----------------|----------------|----------------||

|----------------|----------------|----------------|----------------||
|----------------|----------------|----------------|----------------||
|----------------|----------------|----------5-----|----------------||
|-7---------3----|----------------|--3-------------|----------------||
 E5
|----------------|----------------|----------------|----------------||
|----------------|----------------|----------------|----------------||
|-7--------------|----------------|----------------|----------------||
|----------------|----------------|----------------|----------------||
 E5                  D5              E5
|----------------|----------------|----------------|----------------||
|----------------|----------------|----------------|----------------||
|7---------------|----5-----------|---7------------|----------------||
|----------------|----------------|----------------|----------------||
 E5
|----------------|----------------|----------------|----------------||
|----------------|----------------|----------------|----------------||
|-7--------------|----------------|----------------|----------------||
|----------------|----------------|----------------|----------------||
 C5                D5                    E5
|----------------|----------------|----------------|----------------||
|----------------|----------------|----------------|----------------||
|-3--------------|--5-------------|------7---------|----------------||
|----------------|----------------|----------------|----------------||
 E5                                              G5  F#5
|----------------|----------------|----------------|----------------||
|----------------|----------------|----------------|----------------||
|-7-7-7-7-7-7-7--|7-7-7-7-7-7-7-7-|7-7-7-7-7-7-----|----------------||
|----------------|----------------|--------------3-|--2-------------||
 E5                 D5                E5  
|----------------|----------------|----------------|----------------||
|----------------|----------------|----------------|----------------||
|-7--------------|---5-----------------7-----------|----------------||
|----------------|----------------|----------------|----------------||
 E5                                             E5   D5
|----------------|----------------|----------------|----------------||
|----------------|----------------|----------------|----------------||
|-7-7-7-7-7-7-7-7|-7-7-7-7-7-7-7-7|-7-7-7-7-7-7--7-|--5-------------||
|----------------|----------------|----------------|----------------||
E5                   D5               E5
|----------------|----------------|----------------|----------------||
|----------------|----------------|----------------|----------------||
|-7--------------|----5-----------|----7-----------|----------------||
|----------------|----------------|----------------|----------------||
 F#5                                                    A5  G#
|----------------|----------------|----------------|----------------||
|----------------|----------------|----------------|----------------||
|----------------|----------------|----------------|----------------||
|-2-2-2-2-2-2-2-2|-2-2-2-2-2-2-2-2|2-2-2-2--2-2-2-2|-2--5---4-------||
 F#5               E5               F#5
|----------------|----------------|----------------|----------------||
|----------------|----------------|----------------|----------------||
|----------------|--7-------------|----------------|----------------||
|-2--------------|----------------|---2------------|----------------||
 F#5                                                     A5  G#
|----------------|----------------|----------------|----------------||
|----------------|----------------|----------------|----------------||
|----------------|----------------|----------------|----------------||
|-2-2-2-2-2-2-2-2|2-2-2-2-2-2-2-2-|2-2-2-2-2-2-2-2-2-2-2--5--4------||
 D5                   E5             F#5
|----------------|----------------|----------------|----------------||
|----------------|----------------|----------------|----------------||
|-5--------------|----7-----------|----------------|----------------||
|----------------|----------------|---2------------|----------------||
 E5                                              G5  F#5
 ---------------- ----------------|----------------|----------------||
|----------------|----------------|----------------|----------------||
|-7-7-7-7-7-7-7-7|-7-7-7-7-7-7-7-7|-7-7-7-7-7-7----|----------------||
|----------------|----------------|---------------3|--2-------------||
 E5                 D5               E5
|----------------|----------------|----------------|----------------||
|----------------|----------------|----------------|----------------||
|-7--------------|---5------------|---7------------|----------------||
|----------------|----------------|----------------|----------------||
  E5
|----------------|----------------|----------------|----------------||
|----------------|----------------|----------------|----------------||
|-7-7-7-7-7-7-7--7-7-7-7-7-7-7-7--|7-7-7-7-7-7-7-7-|-7-77-7-7--7-7--||
|----------------|----------------|----------------|----------------||

|----------------|----------------|----------------|----------------||
|----------------|----------------|----------------|----------------||
|-7-7-7-7-7-7-7-7|-77-7-7-7-7-7-7-|-77-7-7----3----|--------3-------||
|----------------|----------------|----------------|----------------||
Riff A 2 times
 C5                D5                E5
|----------------|----------------|----------------|----------------||
|----------------|----------------|----------------|----------------||
|-3--------------|-5--------------|---7------------|----------------||
|----------------|----------------|----------------|----------------||


|----------------|----------------|----------------|----------------||
|----------------|----------------|----------------|----------------||
|----------------|----------------|---------0------|----------------||
|-0-------------0|--------------0-|------------/X-- --X--------------

|----------------|----------------|----------------|----------------||
|----------------|----------------|----------------|----------------||
|----------------|----------------|----------------|----------------||
|-0---0-0-0--0-0-0--0-0-0-0-0-0--0|-0-0-0--0-0-0--0|0-0-0-1---------||

|----------------|----------------|----------------|----------------||
|----------------|----------------|----------------|----------------||
|----------------|----------------|-3--------------|----------------||
|-0---0-0-0--0-0-|0-0-/3--0-0-/2--|-------------/x-|-------X-------||

|----------------|----------------|----------------|----------------||
|----------------|----------------|----------------|----------------||
|----------------|----------------|----------------|----------------||
|-0---0-0-0--0-0-|0--0-0-0-0-0-0--|0--0-0-0---0-0-0|-0-0-0-0--1-----||

|----------------|----------------|----------------|----------------||
|----------------|----------------|----------------|----------------||
|-0--------------|--2-------------|--3-------------|--5-------------||
|----------------|----------------|----------------|----------------||

|----------------|----------------|----------------|----------------||
|----------------|----------------|----------------|----------------||
|-7---7-7-7-7-7-7|-7-7-7-7-5---5--|----------------|----------------||
|----------------|----------------|----------------|----------------||

|----------------|----------------|----------------||
|----------------|----------------|----------------||
|-7---7-7-7-7-7-7---3-----5------7|----------------||
|----------------|----------------|----------------||

|----------------|----------------|----------------||
|----------------|----------------|----------------||
|-7---7-7-7-7-7-7|-7-7-7-7-5---5--|----------------||
|----------------|----------------|----------------||

|----------------|----------------||
|----------------|----------------||
|-7---7-7-7-7-7-7|-3--------------||
|----------------|----------------||

|----------------|----------------|----------------|----------------||
|----------------|----------------|----------------|----------------||
|-7--------------|---5------------|-7--------------|--5-------------||
|----------------|----------------|----------------|----------------||

|----------------|----------------|----------------|----------------||
|----------------|----------------|----------------|----------------||
|-3--------------|----------------|----------------|-------------7--||
|----------------|----------------|----------------|----------------||
 E5
|----------------|----------------|----------------|----------------||
|----------------|----------------|----------------|----------------||
|-7-7-7-7-7-7-7-7|-7-7-7-7-7-7-7-7|-7-7-7-7-7-7-7-7|7-7-7-7-7-7-7-7-||
|----------------|----------------|----------------|----------------||
                  D5
|----------------|----------------|----------------|----------------||
|----------------|----------------|----------------|----------------||
|-7-7-7-7-7-7-77-|-5--------------|----------------|----------------||
|----------------|----------------|----------------|----------------||
 E5                                B5
|----------------|----------------|----------------|----------------||
|----------------|----------------|----------------|----------------||
|-7-7-7-7-7-7-7-7|-7-7-7-7-7-7-7-7|-2-~~-----------|----------------||
|----------------|----------------|----------------|----------------||
 C5                                D5
|----------------|----------------|----------------|----------------||
|----------------|----------------|----------------|----------------||
|-3-~~-----------|----------------|-5-~~------------------------------
|----------------|----------------|----------------|----------------||
 E5
|----------------|----------------|----------------|----------------||
|----------------|----------------|----------------|5----7---5--4---||
|-7-----7---7----|9---7--6--------|6--7--9-----7---|----------------||
|----------------|-------------7--|----------------|----------------||
 B5
|----------------|----------------|----------------|----------------||
|----------------|----------------|----------------|----------------||
|-2-2-2-2-2-2-2-2|-2-2-2-2-2-2-2-2|-22-2-2-2-2-2-2-|----------------||
|----------------|----------------|----------------|----------------||
Riff B
|----------------|----------------|----------------|----------------||
|----------------|----------------|----------------|----------------||
|-7--------------|-----5----------|--7-------------|---5------------||
|----------------|----------------|----------------|----------------||

|----------------|----------------|----------------|----------------||
|----------------|----------------|----------------|----------------||
|-----7----------|----------------|----------------|----------------||
|----------------|--0--0---0---0--|----------------|----------------||
comments
print report bad tab
3 comments total.
0 reply
Bam_HIM_Bassist wrote on December 21 2005, 08:40 am

What Tuning Is This?

0 reply
Satan Man wrote on January 21 2007, 06:15 am

it mite be CGCF or CFAD

0 reply
dan ramP wrote on October 28 2008, 12:10 pm

DGCF tuning

I want to post or [tab]
guest
You may want to rate the tab now too:
select rating
Please do not post tabs as comments. Select "correction" instead!