Oops, an error
Loading. Please wait.

Smile Pretty For The Devil Bass Tab

ver1
ver1

Whole song

Interactive

More versions @911Tabs.com
2,119 views 3 this week
1 commentread comment
1 2 3 4 5
excellent!
x 2
Autoscroll
+/-
esc
set tempo
stop
Contributor
WARNING: You are trying to view
                                    content from Ultimate-Guitar.com
                                    in an unauthorized application,
                                    which is prohibited.

                                    Please use an official Ultimate
                                    Guitar Tabs application for iPhone,
                                    iPad or Android to access legitimate
                                    chords, guitar, bass, and drum tabs
                                    from Ultimate-Guitar.com database.

                                    Type "ultimate guitar tabs" in Apple
                                    App Store's or Android Market's
                                    search to find the application.
Song     :Smile Pretty For The Devil (Bass)
Artist   :Children Of Bodom
Tabbed By:Chirantan
E-Mail   :chirantan.pal@gmail.com


F||--------------|--------------------------|--------------------------|
C||--------------|--------------------------|--------------------------|
G||-----5--7-----|--7--8-----5-----------5--|-----------5-----7--5-----|
D||--0--------0--|--------0-----0--0--0-----|--0--0--0-----0--------0--|
                                                     
                                       
|---------------------------|--------------------------|
|---------------------------|--------------------------|
|--5--7-----10-----------8--|-----------8-----5--7-----|
|--------0------0--0--0-----|--0--0--0-----0--------0--|
                                                                         
                                                         
|--------------------------|--------------------------|----------------------|
|--------------------------|--------------------------|----------------------|
|--7--8-----5-----------5--|-----------5--------------|----------------------|
|--------0-----0--0--0-----|--0--0--0-----0--0--0--0--|--0----0----0----0----|

                                                           
|----------------------|----------------------|-----------------------|
|----------------------|----------------------|-----------------------|
|----------------------|----------------------|-----------------------|
|--0----0----0----0----|--0----0----0----0----|--0----0----12\--------|

                                       
|--------------------------|---------------------------|
|--------------------------|---------------------------|
|-----5--7-----7--7-----5--|--7--------10-----------5--|
|--0--------0--------0-----|-----0--0------0--8--0-----|

                                      
|--------------------------|---------------------------|
|--------------------------|---------------------------|
|-----5--7-----7--7-----5--|--7--------7--------10--8--|
|--0--------0--------0-----|-----0--0-----0--6---------|

                                       
|--------------------------|---------------------------|
|--------------------------|---------------------------|
|-----5--7-----7--7-----5--|--7--------10-----------5--|
|--0--------0--------0-----|-----0--0------0--8--0-----|

                                         
|--------------------------|-----------------------------|
|--------------------------|---------------12-----11-----|
|-----5--7-----7--7-----5--|--7--------10------9------8--|
|--0--------0--------0-----|-----0--0--------------------|

                                       
|--------------------------|---------------------------|
|--------------------------|---------------------------|
|-----5--7-----7--7-----5--|--7--------10-----------5--|
|--0--------0--------0-----|-----0--0------0--8--0-----|

                                                          
|--------------------------|---------------------------|-------------------|
|--------------------------|---------------------------|-------------------|
|-----5--7-----7--7-----5--|--7--------7--------10--8--|--5----------------|
|--0--------0--------0-----|-----0--0-----0--6---------|-------------------|

                                                         
|--------------------|--------------------------|--------------------------|
|--------------------|--------------------------|--------------------------|
|-----------3--------|-----5--7-----7--8-----5--|--7-----------5-----4-----|
|--3-----------------|--0--------0--------0-----|-----0--0--3-----2-----1--|

                                       
|--------------------------|---------------------------|
|--------------------------|---------------------------|
|-----5--7-----7--7-----5--|--7--------10-----------5--|
|--0--------0--------0-----|-----0--0------0--8--0-----|

                                                          
|--------------------------|---------------------------|-------------------|
|--------------------------|---------------------------|-------------------|
|-----5--7-----7--7-----5--|--7--------7--------10--8--|-------------------|
|--0--------0--------0-----|-----0--0-----0--6---------|--2----------------|

                                                         
|-------------------|--------------------------|--------------------------|
|-------------------|--------------------------|--------------------------|
|-------------------|-----5--7-----7--8-----5--|--7-----------5-----4-----|
|--1----------------|--0--------0--------0-----|-----0--0--3-----2-----1--|

                                      
|--------------------------|--------------------------|
|--------------------------|--------------------4--5--|
|--------------------------|--------------2--5--------|
|--7--0--2--3--0--0--0--0--|--6--0--3--5--------------|

                                                         
|--------------------------|----------------------|--------------------------|
|--------------------------|----------------------|--------------------------|
|--------------------------|-------3----7----5----|--------------------------|
|--7--0--2--3--0--0--0--0--|--3-------------------|--7--0--2--3--0--0--0--0--|

                                                         
|--------------------------|--------------------------|----------------------|
|--------------------4--5--|--------------------------|----------------------|
|--------------2--5--------|--------------------------|-------3----7----5----|
|--6--0--3--5--------------|--7--0--2--3--0--0--0--0--|--3-------------------|

                                       
|--------------------------|---------------------------|
|--------------------------|---------------------------|
|-----5--7-----7--7-----5--|--7--------10-----------5--|
|--0--------0--------0-----|-----0--0------0--8--0-----|

                                                          
|--------------------------|---------------------------|-------------------|
|--------------------------|---------------------------|-------------------|
|-----5--7-----7--7-----5--|--7--------7--------10--8--|--5----------------|
|--0--------0--------0-----|-----0--0-----0--6---------|-------------------|

                                                         
|--------------------|--------------------------|--------------------------|
|--------------------|--------------------------|--------------------------|
|-----------3--------|-----5--7-----7--8-----5--|--7-----------5-----4-----|
|--3-----------------|--0--------0--------0-----|-----0--0--3-----2-----1--|

                                       
|--------------------------|---------------------------|
|--------------------------|---------------------------|
|-----5--7-----7--7-----5--|--7--------10-----------5--|
|--0--------0--------0-----|-----0--0------0--8--0-----|

                                                          
|--------------------------|---------------------------|-------------------|
|--------------------------|---------------------------|-------------------|
|-----5--7-----7--7-----5--|--7--------7--------10--8--|-------------------|
|--0--------0--------0-----|-----0--0-----0--6---------|--2----------------|

                                                         
|-------------------|--------------------------|--------------------------|
|-------------------|--------------------------|--------------------------|
|-------------------|-----5--7-----7--8-----5--|--7-----------------------|
|--1----------------|--0--------0--------0-----|-----0--0--0--3--3--3--1--|

                                      
|--------------------------|--------------------------|
|--------------------------|--------------------------|
|--------------------------|--------------------------|
|-----1--1--1--1--1--1--1--|--1--1--1--1--3--3--3--1--|

                                       
|--------------------------|---------------------------|
|--------------------------|---------------------------|
|--------------------------|---------------------------|
|-----1--1--1--1--1--1--1--|--1--1--1--1--3s--6--6--0--|

                                      
|--------------------------|--------------------------|
|--------------------------|--------------------------|
|--------------------------|--------------------------|
|-----0--0--0--0--0--0--0--|--0--0--0--0--0--0--0--0--|

                                      
|--------------------------|--------------------------|
|--------------------------|--------------------------|
|--------------------------|--------------------------|
|--0--0--0--0--0--0--0--0--|--0--0--0--0--3--3--3--1--|

                                      
|--------------------------|--------------------------|
|--------------------------|--------------------------|
|--------------------------|--------------------------|
|-----1--1--1--1--1--1--1--|--1--1--1--1--3--3--3--1--|

                                       
|--------------------------|---------------------------|
|--------------------------|---------------------------|
|--------------------------|---------------------------|
|-----1--1--1--1--1--1--1--|--1--1--1--1--3s--6--6--0--|

                                      
|--------------------------|--------------------------|
|--------------------------|--------------------------|
|--------------------------|--------------------------|
|-----0--0--0--0--0--0--0--|--0--0--0--0--0--0--0--0--|

                                      
|--------------------------|--------------------------|
|--------------------------|--------------------------|
|--------------------------|--------------------------|
|--0--0--0--0--0--0--0--0--|--0--0--0--0--0--0--8--8--|

                                      
|--------------------------|--------------------------|
|--------------------------|--------------------4--5--|
|--------------------------|--------------2--5--------|
|--7--0--2--3--0--0--0--0--|--6--0--3--5--------------|

                                                         
|--------------------------|----------------------|--------------------------|
|--------------------------|----------------------|--------------------------|
|--------------------------|-------3----7----5----|--------------------------|
|--7--0--2--3--0--0--0--0--|--3-------------------|--7--0--2--3--0--0--0--0--|

                                      
|--------------------------|--------------------------|
|--------------------4--5--|--------------------------|
|--------------2--5--------|--------------------------|
|--6--0--3--5--------------|--7--0--2--3--0--0--0--0--|

                                                         
|--------------------------|-------------------|-------------------|
|--------4--5--------4--5--|-------------------|-------------------|
|--2--5--------2--5--------|-------------------|-------------------|
|--------------------------|--0----------------|-------------------|

                                                         
|-------------------|-------------------|-------------------------|
|-------------------|-------------------|-------------------------|
|-------------------|-------------------|-----5--7-----7--7-------|
|-------------------|-------------------|--0--------0-------------|

                                                         
|-------------------|-------------------------|-------------------|
|-------------------|-------------------------|-------------------|
|-------------------|-----5--7-----7--8-------|-------------------|
|-------------------|--0--------0-------------|-------------------|
                                                    
                                                         
|-------------------------|--------------------------|--------------------------|
|-------------------------|--------------------------|--------------------------|
|--5----5--5--5--5--5--5--|--------------3--3--3--3--|-----5--7-----7--8-----5--|
|-------------------------|--3--3--3--3--------------|--0--------0--------0-----|

                                      
|--------------------------|--------------------------|
|--------------------------|--------------------------|
|--7-----------5-----4-----|-----5--7-----7--7-----5--|
|-----0--0--3-----2-----1--|--0--------0--------0-----|

                                       
|---------------------------|--------------------------|
|---------------------------|--------------------------|
|--7--------10-----------5--|-----5--7-----7--7-----5--|
|-----0--0------0--8--0-----|--0--------0--------0-----|



|---------------------------|-------------------|-------------------|
|---------------------------|-------------------|-------------------|
|--7--------7--------10--8--|-------------------|-------------------|
|-----0--0-----0--6---------|--2----------------|--1----------------|

                                      
|--------------------------|--------------------------|
|--------------------------|--------------------------|
|-----5--7-----7--8-----5--|--7-----------------------|
|-----------0--------0-----|-----0--0--0--3--3--3--1--|

                                      
|--------------------------|--------------------------|
|--------------------------|--------------------------|
|--------------------------|--------------------------|
|-----1--1--1--1--1--1--1--|--1--1--1--1--3--3--3--1--|

                                       
|--------------------------|---------------------------|
|--------------------------|---------------------------|
|--------------------------|---------------------------|
|-----1--1--1--1--1--1--1--|--1--1--1--1--3s--6--6--0--|

                                      
|--------------------------|--------------------------|
|--------------------------|--------------------------|
|--------------------------|--------------------------|
|-----0--0--0--0--0--0--0--|--0--0--0--0--0--0--0--0--|

                                      
|--------------------------|--------------------------|
|--------------------------|--------------------------|
|--------------------------|--------------------------|
|--0--0--0--0--0--0--0--0--|--0--0--0--0--3--3--3--1--|

                                      
|--------------------------|--------------------------|
|--------------------------|--------------------------|
|--------------------------|--------------------------|
|-----1--1--1--1--1--1--1--|--1--1--1--1--3--3--3--1--|

                                       
|--------------------------|---------------------------|
|--------------------------|---------------------------|
|--------------------------|---------------------------|
|-----1--1--1--1--1--1--1--|--1--1--1--1--3s--6--6--0--|

                                      
|--------------------------|--------------------------|
|--------------------------|--------------------------|
|--------------------------|--------------------------|
|-----0--0--0--0--0--0--0--|--0--0--0--0--0--0--0--0--|

                                                         
|--------------------------|--------------------------|-------------------------|
|--------------------------|--------------------------|-------------------------|
|--------------------------|--------------------------|-------------------------|
|--0--0--0--0--0--0--0--0--|--0--0--0--0--0--0--8--8--|--0--0--0--0--0--0-------|
                                                             
                                                            
|-------------------|----------------------------|-----------------------|
|-------------------|----------------------------|-----------------------|
|-------------------|----------------------------|-----------------------|
|-------------------|--0--0--0---0--0--0-----0---|-----0-----------------|
                                                                
                                                            
|-------------------------|-------------------|-----------------------------|
|-------------------------|-------------------|-----------------------------|
|-------------------------|-------------------|-----------------------------|
|--0--0--0--0--0--0-------|-------------------|--0--0--0---0---3--3-----0---|
                                          
                                          
|------------------------------|--------------------------|
|------------------------------|--------------------------|
|------------------------------|--------------------------|
|-----0------0---3--3--0---0---|--5--5--3--3--5-----5--3--|

                                      
|--------------------------|--------------------------|
|--------------------------|--------------------------|
|--------------3--3--------|--------------------------|
|-----3-----3--------3--3--|--5--5--3--3--5-----5--3--|

                                      
|--------------------------|--------------------------|
|--------------------------|--------------------------|
|--------------3--3--------|--------------------------|
|-----3-----3--------3--3--|--5--5--3--3--5-----5--3--|

                                      
|--------------------------|--------------------------|
|--------------------------|--------------------------|
|--------------3--3--------|--------------1--1--1--3--|
|-----3-----3--------3--3--|--1--5--3--3--------------|

                                          
|--------------------------|------------------------------|
|--------------------------|------------------------------|
|-----3-----3--3--3--3--3--|------------------------------|
|--------------------------|--10--10--8--8--10-----10--8--|

                                          
|--------------------------|------------------------------|
|--------------------------|------------------------------|
|--------------8--8--------|------------------------------|
|-----8-----8--------8--8--|--10--10--8--8--10-----10--8--|

                                          
|--------------------------|------------------------------|
|--------------------------|------------------------------|
|--------------8--8--------|------------------------------|
|-----8-----8--------8--8--|--10--10--8--8--10-----10--8--|

                                           
|--------------------------|-------------------------------|
|--------------------------|-------------------------------|
|--------------8--8--------|------------------------8--10--|
|-----8-----8--------8--8--|--10--10--8--8--10--10---------|

                                            
|--------------------------------|----------------------|
|--------------------------------|----------------------|
|-----10-----10--10--10--10--10--|----------------------|
|--------------------------------|--5-------------5--5--|

                                        
|----------------------------|----------------------|
|----------------------------|----------------------|
|----------------------------|----------------------|
|--5s--3--3--3--3s--1--1--1--|--5-------------5--5--|

                                        
|----------------------------|----------------------|
|----------------------------|----------------------|
|----------------------------|----------------------|
|--5s--8--8--8--8s--1--1--1--|--5-------------5--5--|

                                                           
|----------------------------|-------------------|--------------------|
|----------------------------|-------------------|--------------------|
|----------------------------|--5----------------|--1-----------------|
|--5s--3--3--3--3s--1--1--1--|-------------------|-----------4--------|

                                                           
|----------------------|----------------------------|----------------------|
|----------------------|----------------------------|----------------------|
|----------------------|----------------------------|----------------------|
|--5-------------5--5--|--5s--3--3--3--3s--1--1--1--|--5-------------5--5--|

                                        
|----------------------------|----------------------|
|----------------------------|----------------------|
|----------------------------|----------------------|
|--5s--8--8--8--8s--1--1--1--|--5-------------5--5--|

                                                           
|----------------------------|-------------------|--------------------|
|----------------------------|-------------------|--------------------|
|----------------------------|--5----------------|--1-----------------|
|--5s--3--3--3--3s--1--1--1--|-------------------|-----------3--------|

                                                           
|----------------------|----------------------------|----------------------|
|----------------------|----------------------------|----------------------|
|----------------------|----------------------------|----------------------|
|--4-------------4--4--|--4s--2--2--2--2s--0--0--0--|--4-------------4--4--|

                                        
|----------------------------|----------------------|
|----------------------------|----------------------|
|----------------------------|----------------------|
|--4s--7--7--7--7s--0--0--0--|--4-------------4--4--|

                                                           
|----------------------------|-------------------|-------------------|
|----------------------------|-------------------|-------------------|
|----------------------------|-------------------|-------------------|
|--4s--2--2--2--2s--0--0--0--|--1----------------|--0----------------|

                                                           
|----------------------|----------------------------|----------------------|
|----------------------|----------------------------|----------------------|
|----------------------|----------------------------|----------------------|
|--4-------------4--4--|--4s--2--2--2--2s--0--0--0--|--4-------------4--4--|

                                        
|----------------------------|----------------------|
|----------------------------|----------------------|
|----------------------------|----------------------|
|--4s--7--7--7--7s--0--0--0--|--4-------------4--4--|

                                                           
|----------------------------|-------------------|-------------------|
|----------------------------|-------------------|-------------------|
|----------------------------|-------------------|-------------------|
|--4s--2--2--2--2s--0--0--0--|--1----------------|--0----------------|

                                                          
|----------------------|----------------------------|----------------------|
|----------------------|----------------------------|----------------------|
|--5-------------5--5--|--5s--3--3--3--3s--1--1--1--|--5-------------5--5--|
|----------------------|----------------------------|----------------------|

                                       
|----------------------------|----------------------|
|----------------------------|----------------------|
|--5s--8--8--8--8s--1--1--1--|--5-------------5--5--|
|----------------------------|----------------------|

                                                           
|----------------------------|-------------------|-------------------|
|----------------------------|-------------------|-------------------|
|--5s--3--3--3--3s--1--1--1--|--2----------------|--1----------------|
|----------------------------|-------------------|-------------------|

                                                          
|----------------------|----------------------------|----------------------|
|----------------------|----------------------------|----------------------|
|--5-------------5--5--|--5s--3--3--3--3s--1--1--1--|--5-------------5--5--|
|----------------------|----------------------------|----------------------|

                                       
|----------------------------|----------------------|
|----------------------------|----------------------|
|--5s--8--8--8--8s--1--1--1--|--5-------------5--5--|
|----------------------------|----------------------|

                                                           
|----------------------------|-------------------|-------------------|
|----------------------------|-------------------|-------------------|
|--5s--3--3--3--3s--1--1--1--|--2----------------|--1----------------|
|----------------------------|-------------------|-------------------|

                                                          
|--------------------|---------9--10-----------|--------------------------|
|--------------------|--7--10------------------|--------------------------|
|--5-----------------|-------------------------|--------7--8--------7--8--|
|--------------------|-------------------------|--5--8--------5--8--------|

                     
|-----------------------||
|-----------------------||
|--5\-------------------||
|-----------------------||
comments
We did not receive enough feedback on this tab! Please rate:
print report bad tab
1 2 3 4 5
1 comment total.
0 reply
MusicMan24 wrote on May 25 2009, 07:23 pm

I think the tuning is CGCF

I want to post or [tab]
guest
You may want to rate the tab now too:
select rating
Please do not post tabs as comments. Select "correction" instead!