Oops, an error
Loading. Please wait.

Taste Of My Scythe Bass Tab

ver1
ver1

Whole song

Interactive

More versions @911Tabs.com
266 views 1 this week
no commentswrite comment
1 2 3 4 5
worth learning
x 1
add to favorites launch autoscroll
font size
0
reset
Autoscroll
+/-
esc
set tempo
stop
Contributor
WARNING: You are trying to view
                                    content from Ultimate-Guitar.com
                                    in an unauthorized application,
                                    which is prohibited.

                                    Please use an official Ultimate
                                    Guitar Tabs application for iPhone,
                                    iPad or Android to access legitimate
                                    chords, guitar, bass, and drum tabs
                                    from Ultimate-Guitar.com database.

                                    Type "ultimate guitar tabs" in Apple
                                    App Store's or Android Market's
                                    search to find the application.
Tune Down

F||------------------|------------------|------------------|
C||------------------|------------------|------------------|
G||------------------|------------------|------------------|
D||------------------|------------------|------------------|


                                                                  
---------------------|------------------------|------------------|
---------------------|------------------------|------------------|
---------10----------|------------------------|------------------|
------7--------------|----3-3-3--3-3-0--------|------------------|


                                                                     
------------------------|------------------|------------------------|
------------------------|------------------|------------------------|
------------------------|------------------|---------------5--------|
----3-3-3--3-3-0--------|------------------|----3-3-3--3-3----------|


                                                                       
------------------|---------------------|-----------------------------|
------------------|---------------------|-----------------------------|
------------------|----1--3----5--------|----3-3-3--3-3-5-5-5-5---3-3-|
------------------|---------------------|-----------------------------|


                                                
------------|----------------------------------|
------------|----------------------------------|
--3-3-------|----------------------------------|
------------|--0-0-0-0-0-0-0-0-0-0-0-0-0-0-0-0-|


                                                                      
----------------------------------|----------------------------------|
----------------------------------|----------------------------------|
----------------------------------|----------------------------------|
--0-0-0-0-0-0-0-0-0-0-0-0-0-0-0-0-|--0-0-0-0-0-0-0-0-0-0-0-0-0-0-0-0-|


                                                                          
---------------------------|----------|----------------------------------|
---------------------------|----------|----------------------------------|
---------------------------|----------|----------------------------------|
--0-0-0-0-0-0-0-0-0--------|----------|--0-0-0-0-0-0-0-0-0-0-0-0-0-0-0-0-|


                                                                      
----------------------------------|----------------------------------|
----------0-0-0-0---------0-0-0-0-|----------------------------------|
----------------------------------|----------------------------------|
--0-0-0-0---------3-3-3-3---------|--0-0-0-0-0-0-0-0-0-0-0-0-0-0-0-0-|


                                                                   
-------------------------------|----------------------------------|
----------0-0-0-0--------------|----------------------------------|
----------------------2--------|----------------------------------|
--0-0-0-0----------------3--2--|--0-0-0-0-0-0-0-0-0-0-0-0-0-0-0-0-|


                                                                      
----------------------------------|----------------------------------|
----------0-0-0-0---------0-0-0-0-|----------------------------------|
----------------------------------|----------------------------------|
--0-0-0-0---------3-3-3-3---------|--0-0-0-0-0-0-0-0-0-0-0-0-0-0-0-0-|


                                                                          
------------------------------------|------------------------------------|
----------0-0-0-0----2--1--2-----4--|------------------------------------|
------------------2-----------2-----|--2---------------------------------|
--0-0-0-0---------------------------|-----4------1-1-1-1-1-1-0-0-0-0-0-0-|


                                            
-------------------------------------------|
-------------------------------------------|
--1-1-1-1-1-1------------------------------|
--------------1-1-1-1-1-1-0-0-0-0-0-0-3----|


                                                                             
--------------------------------------------|-------------------------------|
-----0--------------------------0-0-0-0-0-0-|--3-3-3-3-3-3-2-2-2-2-2-2-0----|
--1-----------------------------------------|-------------------------------|
--------1-1-1-1-1-1-0-0-0-0-0-0-------------|-------------------------------|


                                                                 
--------------------|----------------------|--------------------|
--0--2--------------|----------------------|--0--2--------------|
--------------------|-------5----7---------|--------------------|
--------------------|--3--------------7----|--------------------|


                                                                    
----------------------|--------------------------------------------|
----------------------|--2-2-2-2-2-2-0--0--0--2-2-2-2-2-2-1--1--1--|
-------5----7---------|--------------------------------------------|
--3--------------7----|--------------------------------------------|


                                                                            
-------------------------------|---------------------|---------------------|
-------------------------------|----------------0----|-----------0----2----|
-----2--0--2--------------7----|--3------------------|--3------------------|
--0-----------3--2--3/-7-------|-----------3---------|---------------------|


                                                                    
---------------------|----------------------|----------------------|
----------------0----|------------0----2----|------------2----0----|
--3------------------|--3-------------------|--3----0--------------|
-----------3---------|-------3--------------|----------------------|


                                                                      
----------------------|----------------------|-----------------------|
-------2----0----2----|------------2----0----|-------2----0----2-----|
--3-------------------|--3----0--------------|--3-----------------2--|
----------------------|----------------------|-----------------------|


                                                                      
------0---------------0-----------|----------------------------------|
--------2-----0-2-------2---------|------3-2-----1-2-----3-2---------|
----------------------------------|----------------------------------|
--0-0-----0-0-----0-0-----0-0-0-0-|--0-0-----0-0-----0-0-----0-0-0-0-|


                                                                  
--0---------------0---------------|------------------------------|
----2-----0-2-------2-------------|------------------------------|
----------------------------------|--3-3---5-5---------0-2-0-----|
------0-0-----0-0-----0-0-0-0-0-0-|--------------0-2-3-------3-2-|


                                                                      
----------------------------------|----------------------------------|
----------------------------------|----------0-0-0-0---------0-0-0-0-|
----------------------------------|----------------------------------|
--0-0-0-0-0-0-0-0-0-0-0-0-0-0-0-0-|--0-0-0-0---------3-3-3-3---------|


                                                                   
----------------------------------|-------------------------------|
----------------------------------|----------0-0-0-0--------------|
----------------------------------|----------------------2--------|
--0-0-0-0-0-0-0-0-0-0-0-0-0-0-0-0-|--0-0-0-0----------------3--2--|


                                                                      
----------------------------------|----------------------------------|
----------------------------------|----------0-0-0-0---------0-0-0-0-|
----------------------------------|----------------------------------|
--0-0-0-0-0-0-0-0-0-0-0-0-0-0-0-0-|--0-0-0-0---------3-3-3-3---------|


                                                                   
----------------------------------|----------------------0--------|
----------------------------------|----------0-0-0-0--------4--2--|
----------------------------------|-------------------------------|
--0-0-0-0-0-0-0-0-0-0-0-0-0-0-0-0-|--0-0-0-0----------------------|


                                             
--------------------------------------------|
--0--2--2-2-2-2-2-2-2-2-2-2-2-2-0-0-0-0-0-0-|
--------------------------------------------|
--------------------------------------------|


                                            
-------------------------------------------|
--------------2-2-2-2-2-2-0-0-0-0-0-0-2----|
--3-3-3-3-3-3------------------------------|
-------------------------------------------|


                                             
--------------------------------------------|
--0--2--2-2-2-2-2-2-2-2-2-2-2-2-0-0-0-0-0-0-|
--------------------------------------------|
--------------------------------------------|


                                                                 
-------------------------------------------|--------------------|
--------------2-2-2-2-2-2-0-0-0-0-0-0-2----|--2--4--------------|
--3-3-3-3-3-3------------------------------|--------------------|
-------------------------------------------|--------------------|


                                                                   
----------------------|--------------------|----------------------|
-------2----4---------|--2--4--------------|-------2----4---------|
--0--------------4----|--------------------|--0--------------4----|
----------------------|--------------------|----------------------|


                                                                      
--------------------------------------------|-------------------6----|
--------------------------------------------|-------------3--6-------|
--------------------------------------------|----------4-------------|
--2-2-2-2-2-2-0--0--0--2-2-2-2-2-2-1--1--1--|------------------------|


                                                                  
---------------------|---------------------|---------------------|
----------------0----|-----------0----2----|----------------0----|
--3------------------|--3------------------|--3------------------|
-----------3---------|---------------------|-----------3---------|


                                                                     
----------------------|----------------------|----------------------|
------------0----2----|------------2----0----|-------2----0----2----|
--3-------------------|--3----0--------------|--3-------------------|
-------3--------------|----------------------|----------------------|


                                                                         
----------------------|------------------------|------------------------|
------------2----0----|------------------------|------------------------|
--3----0--------------|--------------2---------|-------------1-1-1--1-1-|
----------------------|--0---2---3-------3--2--|--0---------------------|


                                                                        
------------------------|------------------------|---------------------|
------------------------|--0---------------------|--0------------------|
-------------1-1-1--1-1-|-------------3-3-3--3-3-|-------------1--3----|
--0---------------------|------------------------|---------------------|


                                                                        
------------------------|---------------------|------------------------|
--0---------------------|--0------------------|--2---------------------|
-------------3-3-3--3-3-|-------------1--3----|-------------5-5-5--5-5-|
------------------------|---------------------|------------------------|


                                                                             
---------------------|------------------------|-----------------------------|
--2------------------|--2---------------------|-----------------------------|
-------------3--5----|-------------5-5-5--5-5-|-----------------------------|
---------------------|------------------------|--0-0-0-0--0--0--0--0--0-0-0-|


                                                                      
------0---------------0-----------|----------------------------------|
--------2-----0-2-------2---------|------3-2-----1-2-----3-2---------|
----------------------------------|----------------------------------|
--0-0-----0-0-----0-0-----0-0-0-0-|--0-0-----0-0-----0-0-----0-0-0-0-|


                                                                      
--0---------------0---------------|----------------------------------|
----2-----0-2-------2-------------|--3-2-----1-2-----3-2-------------|
----------------------------------|----------------------------------|
------0-0-----0-0-----0-0-0-0-0-0-|------0-0-----0-0-----0-0-0-0-0-0-|


                                                                      
------0---------------0-----------|----------------------------------|
--------2-----0-2-------2---------|------3-2-----1-2-----3-2---------|
----------------------------------|----------------------------------|
--0-0-----0-0-----0-0-----0-0-0-0-|--0-0-----0-0-----0-0-----0-0-0-0-|


                                                                        
--0---------------0---------------|------------------------------------|
----2-----0-2-------2-------------|--3-2-----1-2-----------------------|
----------------------------------|------------------------------------|
------0-0-----0-0-----0-0-0-0-0-0-|------0-0-----0-0-0-0-0-0--0-0-0-0--|


                       
---------------------||
-----------0--2------||
--1------------------||
---------------------||
comments
We did not receive enough feedback on this tab! Please rate:
print report bad tab
1 2 3 4 5
I want to post or [tab]
guest
You may want to rate the tab now too:
select rating
Please do not post tabs as comments. Select "correction" instead!