Oops, an error
Loading. Please wait.

Touch Like An Angel Of Death Tab

ver1
ver1

Intro

Whole song

Interactive

More versions @911Tabs.com
9,872 views 3 this week
3 commentsread comments
1 2 3 4 5
excellent!
x 9
add to favorites launch autoscroll
font size
0
reset
Autoscroll
+/-
esc
set tempo
stop
WARNING: You are trying to view
                                    content from Ultimate-Guitar.com
                                    in an unauthorized application,
                                    which is prohibited.

                                    Please use an official Ultimate
                                    Guitar Tabs application for iPhone,
                                    iPad or Android to access legitimate
                                    chords, guitar, bass, and drum tabs
                                    from Ultimate-Guitar.com database.

                                    Type "ultimate guitar tabs" in Apple
                                    App Store's or Android Market's
                                    search to find the application.
                            TOUCH LIKE ANGEL OF DEATH
                        As recorded by Children of Bodom
                      (From the 1997 Album SOMETHING WILD)

Gtr I (C# F# B E G# C#) - 'Alexi'
Gtr II (C# F# B E G# C#) - 'Alexander'
Gtr III (C# F# B E G# C#) - 'Janne'
Gtr IV (C# F# B E G# C#) - 'Janne'

 Intro
  Q=180
  N.C.
 4/4
  Gtr I
  E E Q  E E Q    E E Q  E E Q    E E Q  E E Q    E E Q  E E Q
|-0-7-0--0-8-0--|-0-7-0--0-5-0--|-0-7-0--0-8-0--|-0-7-0--0-5-0--|
|---------------|---------------|---------------|---------------|
|---------------|---------------|---------------|---------------|
|---------------|---------------|---------------|---------------|
|---------------|---------------|---------------|---------------|
|---------------|---------------|---------------|---------------|


  E5                                                             G5
  E E Q  E E Q     E  E   Q  E E Q     E  E Q  E E Q     E  E Q   E E Q
|-0-7-0--0-8-0--|--0--7---0--0-5-0--|--0--7-0--0-8-0--|--0--7-0---0-5-0--|
|---------------|-------------------|-----------------|------------------|
|---------------|-------------------|-----------------|------------------|
|---------------|-------------------|-----------------|------------------|
|---------------|-------------------|-----------------|------------------|
|---------------|-------------------|-----------------|------------------|
|
| Gtr II
| W                E  H..              W                 Q    Q   H
|---------------|-------------------|-----------------|------------------|
|---------------|-------------------|-----------------|------------------|
|-9-------------|--9----------------|--9--------------|--9----9--12------|
|-9-------------|--9----------------|--9--------------|--9----9--12------|
|-7-------------|--7----------------|--7--------------|--7----7--10------|
|-0-------------|--0----------------|--0--------------|------------------|
|
| Gtr IV
| W               +W                  +W                +W
|---------------|-------------------|-----------------|------------------|
|---------------|-------------------|-----------------|------------------|
|-9-------------|-(9)---------------|-(9)-------------|-(9)--------------|
|-9-------------|-(9)---------------|-(9)-------------|-(9)--------------|
|-7-------------|-(7)---------------|-(7)-------------|-(7)--------------|
|-0-------------|-(0)---------------|-(0)-------------|-(0)--------------|


  E5
   E  E E E E E E E    E  E E E E E E E
|--7--0-0-0-8-0-0-0-|--7--0-0-0-5-0-0-0-|
|-------------------|-------------------|
|-------------------|-------------------|
|-------------------|-------------------|
|-------------------|-------------------|
|-------------------|-------------------|
|
|  W                  +W
|-------------------|-------------------|
|-------------------|-------------------|
|--9----------------|-(9)---------------|
|--9----------------|-(9)---------------|
|--7----------------|-(7)---------------|
|--0----------------|-(0)---------------|
|
| +W                  +W
|-------------------|-------------------|
|-------------------|-------------------|
|-(9)---------------|-(9)---------------|
|-(9)---------------|-(9)---------------|
|-(7)---------------|-(7)---------------|
|-(0)---------------|-(0)---------------|


   E  E E E E E E E    E  E E E E E E E
|--7--0-0-0-8-0-0-0-|--7--0-0-0-5-0-0-0-|
|-------------------|-------------------|
|-------------------|-------------------|
|-------------------|-------------------|
|-------------------|-------------------|
|-------------------|-------------------|
|
| +W                  +W
|-------------------|-------------------|
|-------------------|-------------------|
|-(9)---------------|-(9)---------------|
|-(9)---------------|-(9)---------------|
|-(7)---------------|-(7)---------------|
|-(0)---------------|-(0)---------------|
|
| +W                  +W
|-------------------|-------------------|
|-------------------|-------------------|
|-(9)---------------|-(9)---------------|
|-(9)---------------|-(9)---------------|
|-(7)---------------|-(7)---------------|
|-(0)---------------|-(0)---------------|


  N.C.                                                         E5 D5 C5 B5
   E E E E E E E E     E  E E E E E E E     E  E E E E E E E   W
|--7-0-0-0-8-0-0-0-|---7--0-0-0-5-0-0-0-|---7--0-0-0-8-0-0-0-|-------------|
|------------------|--------------------|--------------------|-------------|
|------------------|--------------------|--------------------|-------------|
|------------------|--------------------|--------------------|-------------|
|------------------|--------------------|--------------------|-------------|
|------------------|--------------------|--------------------|-------------|
|
|  W                  +W                   +W                  Q  Q  Q  Q
|------------------|--------------------|--------------------|-------------|
|------------------|--------------------|--------------------|-------------|
|------------------|--------------------|--------------------|-9--7--5--4--|
|------------------|--------------------|--------------------|-9--7--5--4--|
|------------------|--------------------|--------------------|-7--5--3--2--|
|--0---------------|--(0)---------------|--(0)---------------|-------------|
|
| Gtr III
|  W                  +W                   +W                  W
|-12---------------|-(12)---------------|-(12)---------------|-------------|
|------------------|--------------------|--------------------|-------------|
|------------------|--------------------|--------------------|-------------|
|------------------|--------------------|--------------------|-------------|
|------------------|--------------------|--------------------|-------------|
|------------------|--------------------|--------------------|-------------|


   1st Verse
    E5      A5        E5      B5        E5      A5        E5  D5  C5  B5
    E E E E E E E E   E E E E E E E E   E E E E E E E E   E E E E E E E E   3x
||--7-0---7-8-0---8-|-7-0-8-7-5-0-3-5-|-7-0---7-8-0---8-|-7-8-5-7-3-5-2-3---||
||o-----8-------8---|-----------------|-----8-------8---|------------------o||
||------------------|-----------------|-----------------|-------------------||
||------------------|-----------------|-----------------|-------------------||
||o-----------------|-----------------|-----------------|------------------o||
||------------------|-----------------|-----------------|-------------------||
|
|     PM--|   PM--|     PM--|   PM--|     PM--|   PM--|
|   E E E E E E E E   E E E E E E E E   E E E E E E E E   Q   Q   Q   Q     3x
||------------------|-----------------|-----------------|-------------------||
||o-----------------|-----------------|-----------------|------------------o||
||------------------|-----------------|-----------------|-9---7---5---4-----||
||------------------|-----------------|-----------------|-9---7---5---4-----||
||o-2-------7-------|-2-------9-------|-2-------7-------|-7---5---3---2----o||
||--0-0-0-0-5-5-5-5-|-0-0-0-0-7-7-7-7-|-0-0-0-0-5-5-5-5-|-------------------||
|
|   Gtr IV
|   E E E E E E E E   E E E E E E E E   E E E E E E E E   Q   Q   Q   Q     3x
||--7-0---7-8-0---8-|-7-0-8-7-5-0-3-5-|-7-0---7-8-0---8-|-------------------||
||o-----8-------8---|-----------------|-----8-------8---|------------------o||
||------------------|-----------------|-----------------|-9---7---5---4-----||
||------------------|-----------------|-----------------|-9---7---5---4-----||
||o-----------------|-----------------|-----------------|-7---5---3---2----o||
||------------------|-----------------|-----------------|-------------------||


 Interlude
  C5       B5    Bb5         A5    E5                  N.C.
   H.       Q     H.          Q     Q   H.              W
|--------------|-----------------|-12----------------|------------------|
|-13-------12--|-11tr12------10--|-------------------|------------------|
|--------------|-----------------|-------------------|------------------|
|--------------|-----------------|-------------------|------------------|
|--------------|-----------------|-------------------|------------------|
|--------------|-----------------|-------------------|------------------|
|
|  H.       Q     H.          Q     Q   H.              W
|--------------|-----------------|-------------------|------------------|
|--------------|-----------------|-------------------|------------------|
|--------------|-----------------|-------------------|------------------|
|--------------|-----------------|--9----------------|------------------|
|-10--------9--|--8-----------7--|--7----------------|------------------|
|--8--------7--|--6-----------5--|-------------------|------------------|
|
| Gtr III
|  W              W                 E E E  E E E E E   +E  E E E Q  E E
|--------------|-----------------|-----------------7-|-(7)-------5------|
|--------------|-----------------|------5----8---5---|-------7------8-7-|
|--------------|-----------------|----4----4---4-----|-----4---4--------|
|--------------|-----------------|-------------------|------------------|
|--------------|-----------------|--7----------------|------------------|
|--------------|-----------------|-------------------|------------------|


  E5                  N.C.
  Gtrs I, II
  E H..                W                  W                   W
|-------------------|------------------|------------------|-------------------|
|-------------------|------------------|------------------|-------------------|
|-9-----------------|------------------|------------------|-------------------|
|-9-----------------|------------------|------------------|-------------------|
|-7-----------------|------------------|------------------|-------------------|
|-------------------|------------------|------------------|-------------------|
|
| Gtr III
| E E   E E E E E E   +E  E E E Q  E E    E E E E E E E E    +E  E E E Q  E E
|-----------------7-|-(7)-------5------|----------------7-|--(7)-------5------|
|-------5---8---5---|-------7------8-7-|------5---8---5---|--------7------8-7-|
|---4-----4---4-----|-----4---4--------|----4---4---4-----|------4---4--------|
|-------------------|------------------|------------------|-------------------|
|-7-----------------|------------------|--7---------------|-------------------|
|-------------------|------------------|------------------|-------------------|
|
|                                        Gtr IV
|                                         >
| W                    W                  W                  +W
|-------------------|------------------|-12---------------|-(12)--------------|
|-------------------|------------------|-12---------------|-(12)--------------|
|-------------------|------------------|------------------|-------------------|
|-------------------|------------------|------------------|-------------------|
|-------------------|------------------|------------------|-------------------|
|-------------------|------------------|------------------|-------------------|


  N.C.
   W                   W
|-------------------|-------------------|
|-------------------|-------------------|
|-------------------|-------------------|
|-------------------|-------------------|
|-------------------|-------------------|
|-------------------|-------------------|
|
|  E E E E  E E E E   +E  E E E  Q  E E
|-----------------7-|-(7)--------5------|
|------5----8---5---|-------7-------8-7-|
|----4---4----4-----|-----4---4---------|
|-------------------|-------------------|
|--7----------------|-------------------|
|-------------------|-------------------|
|
|  H        H          H         H
|-12-------11-------|-------------------|
|-------------------|-13--------12------|
|-------------------|-------------------|
|-------------------|-------------------|
|-------------------|-------------------|
|-------------------|-------------------|


    W                     W
|--------------------|---------------------|
|--------------------|---------------------|
|--------------------|---------------------|
|--------------------|---------------------|
|--------------------|---------------------|
|--------------------|---------------------|
|
|   E  E E E E E E E     +E   E E E Q  E E
|------------------7-|---(7)--------5------|
|--------5---8---5---|----------7------8-7-|
|------4---4---4-----|--------4---4--------|
|--------------------|---------------------|
|---7----------------|---------------------|
|--------------------|---------------------|
|
|   >
|   W                    +W
|-<12>---------------|-(<12>)--------------|
|-<12>---------------|-(<12>)--------------|
|--------------------|---------------------|
|--------------------|---------------------|
|--------------------|---------------------|
|--------------------|---------------------|


  N.C.
     W                      W
|----------------------|---------------------|
|----------------------|---------------------|
|----------------------|---------------------|
|----------------------|---------------------|
|----------------------|---------------------|
|----------------------|---------------------|
|
|    E   E E E E E E E     +E   E E E Q  E E
|--------------------7-|---(7)--------5------|
|----------5---8---5---|----------7------8-7-|
|--------4---4---4-----|--------4---4--------|
|----------------------|---------------------|
|----7-----------------|---------------------|
|----------------------|---------------------|
|
|   +W                     +W
|-(<12>)---------------|-(<12>)--------------|
|-(<12>)---------------|-(<12>)--------------|
|----------------------|---------------------|
|----------------------|---------------------|
|----------------------|---------------------|
|----------------------|---------------------|


  C5
     W                     +W
|----------------------|---------------------|
|----------------------|---------------------|
|----5-----------------|---(5)---------------|
|----5-----------------|---(5)---------------|
|----3-----------------|---(3)---------------|
|----------------------|---------------------|
|
|    E   E E E E E E E     +E   E E E Q  E E
|--------------------7-|---(7)--------5------|
|----------5---8---5---|----------7------8-7-|
|--------4---4---4-----|--------4---4--------|
|----------------------|---------------------|
|----7-----------------|---------------------|
|----------------------|---------------------|
|
|   +W                     +W
|-(<12>)---------------|-(<12>)--------------|
|-(<12>)---------------|-(<12>)--------------|
|----------------------|---------------------|
|----------------------|---------------------|
|----------------------|---------------------|
|----------------------|---------------------|


  G5                B5                 E5     B5       E5 N.C.
  Gtr I
  W                  W                 Q  E E Q  E E   Q  E E E E E E
|-----------------|------------------|---------------|----------------|
|-----------------|------------------|---------------|----------------|
|-----------------|--4---------------|---------------|----------------|
|-5---------------|--4---------------|---------------|-2--------------|
|-5---------------|--2---------------|-2------9------|-2--------7-5---|
|-3---------------|------------------|-0--0-0-7--7-7-|-0--3-5-8-----8-|
|
| Gtr II
| W                  W                 Q  E E Q  E E   Q  E E E E E E
|-----------------|------------------|---------------|----------------|
|-----------------|------------------|---------------|----------------|
|-----------------|--4---------------|---------------|----------------|
|-5---------------|--4---------------|---------------|-2--------------|
|-5---------------|--2---------------|-2------9------|-2--------7-5---|
|-3---------------|------------------|-0--0-0-7--7-7-|-0--3-5-8-----8-|
|
|   Gtr III
| E E E E E E E E   +E  E E E Q  E E   W               W
|---------------7-|-(7)-------5------|---------------|----------------|
|-----5---8---5---|-------7------8-7-|---------------|----------------|
|---4---4---4-----|-----4---4--------|---------------|----------------|
|-----------------|------------------|---------------|----------------|
|-7---------------|------------------|---------------|----------------|
|-----------------|------------------|---------------|----------------|


  B5     A5       E5     G5  F#5
  E E Q  E E Q    E E Q   Q   Q
|---------------|----------------||
|---------------|----------------||
|---------------|--------12--11--||
|---------------|----------------||
|-9-9-9--7-7-7--|-2-2-2----------||
|-7-7-7--5-5-5--|-0-0-0----------||
|
| E E Q  E E Q    E E Q   Q   Q
|---------------|----------------||
|---------------|----------------||
|---------------|----------------||
|---------------|----------------||
|-9-9-9--7-7-7--|-2-2-2---5---4--||
|-7-7-7--5-5-5--|-0-0-0---3---2--||
|
| W               W
|---------------|----------------||
|---------------|----------------||
|---------------|----------------||
|---------------|----------------||
|---------------|----------------||
|---------------|----------------||


   Chorus
    N.C.
    E    E    E    E   E    E    E    E
||----------------------------------------|
||o-----12---12---12-------13---13---13---|
||--9------------------9------------------|
||----------------------------------------|
||o---------------------------------------|
||----------------------------------------|
|
|   S S  S S  S S  S S S S  S S  S S  S S
||----------------------------------------|
||o---------------------------------------|
||----------------------------------------|
||----------------------------------------|
||o---------------------------------------|
||--0-0--7-7--7-7--7-7-0-0--8-8--8-8--8-8-|
|
|   E    E    E    E   E    E    E    E
||----------------------------------------|
||o-----12---12---12-------13---13---13---|
||--9------------------9------------------|
||----------------------------------------|
||o---------------------------------------|
||----------------------------------------|


  E    E    E    E    E    E    E    E
|-------------------------12---10---------|
|----------10---12---13-------------13----|
|-9---12----------------------------------|
|-----------------------------------------|
|-----------------------------------------|
|-----------------------------------------|
|
| S S  S S  S S  S S  S S  S S  S S  S S
|-----------------------------------------|
|-----------------------------------------|
|-----------------------------------------|
|-----------------------------------------|
|-----------------------------------------|
|-0-0--0-0--8-8--8-8--7-7--7-7--5-5--5-5--|
|
| E    E    E    E    E    E    E    E
|-------------------------12---10---------|
|----------10---12---13-------------13----|
|-9---12----------------------------------|
|-----------------------------------------|
|-----------------------------------------|
|-----------------------------------------|


  N.C.                                                          G5  F#5
   E    E    E    E    E    E    E    E      E   E   E   E    a  Q   Q   3x
|-----------------------------------------|------------------------------||
|-12---12---10--------10---10-------------|------------------10S12--10--o||
|----------------12-------------12---11---|-12---9---9---9---------------||
|-----------------------------------------|------------------------------||
|-----------------------------------------|-----------------------------o||
|-----------------------------------------|------------------------------||
|
|  S S  S S  S S  S S  S S  S S  S S  S S    S S S S S S S S     Q   Q   3x
|-----------------------------------------|------------------------------||
|-----------------------------------------|-----------------------------o||
|-----------------------------------------|------------------------------||
|-----------------------------------------|----------------------9---7---||
|-----------------------------------------|----------------------9---7--o||
|--7-7--7-7--7-7--7-7--5-5--5-5--5-5--5-5-|--0-0-0-0-0-0-0-0-----7---5---||
|
|  E    E    E    E    E    E    E    E      E   E   E   E       Q   Q   3x
|-----------------------------------------|------------------------------||
|-12---12---10--------10---10-------------|---------------------12--10--o||
|----------------12-------------12---11---|-12---9---9---9---------------||
|-----------------------------------------|------------------------------||
|-----------------------------------------|-----------------------------o||
|-----------------------------------------|------------------------------||


 Pre-2nd Verse
  C5            E5            Bb5           E5G5N.C.G5F#5   E5G5F#E5
                                            |-3-| |-3-|     |-3-|
  E E H.        E E H.        E E H.        Q Q Q Q Q Q     Q Q Q H
|-------------|-------------|-------------|---------------|------------||
|-------------|-------------|-------------|---------------|------------||
|-5-5---------|-------------|-------------|---------------|------------||
|-5-5---------|-2-2---------|-8-8---------|---------------|------------||
|-3-3---------|-2-2---------|-8-8---------|-2-5-3-2-5-4---|-2-5-4-2----||
|-------------|-0-0---------|-6-6---------|-0-3-----3-2---|-0-3-2-0----||
|
|                                           |-3-| |-3-|     |-3-|
| E E H.        E E H.        E E H.        Q Q Q Q Q Q     Q Q Q H
|-------------|-------------|-------------|---------------|------------||
|-------------|-------------|-------------|---------------|------------||
|-5-5---------|-------------|-------------|---------------|------------||
|-5-5---------|-2-2---------|-8-8---------|---------------|------------||
|-3-3---------|-2-2---------|-8-8---------|-2-5-3-2-5-4---|-2-5-4-2----||
|-------------|-0-0---------|-6-6---------|-0-3-----3-2---|-0-3-2-0----||
|
| W             W             W             W               W
|-------------|-------------|-------------|---------------|------------||
|-------------|-------------|-------------|---------------|------------||
|-------------|-------------|-------------|---------------|------------||
|-------------|-------------|-------------|---------------|------------||
|-------------|-------------|-------------|---------------|------------||
|-------------|-------------|-------------|---------------|------------||


   2nd Verse
    E5      A5        E5      B5        E5      A5        E5  D5  C5  B5
    E E E E E E E E   E E E E E E E E   E E E E E E E E   E E E E E E E E   4x
||--7-0---7-8-0---8-|-7-0-8-7-5-0-3-5-|-7-0---7-8-0---8-|-7-8-5-7-3-5-2-3---||
||o-----8-------8---|-----------------|-----8-------8---|------------------o||
||------------------|-----------------|-----------------|-------------------||
||------------------|-----------------|-----------------|-------------------||
||o-----------------|-----------------|-----------------|------------------o||
||------------------|-----------------|-----------------|-------------------||
|
|   Gtr II
|     PM--|   PM--|     PM--|   PM--|     PM--|   PM--|
|   E E E E E E E E   E E E E E E E E   E E E E E E E E   Q   Q   Q   Q     4x
||------------------|-----------------|-----------------|-------------------||
||o-----------------|-----------------|-----------------|------------------o||
||------------------|-----------------|-----------------|-9---7---5---4-----||
||------------------|-----------------|-----------------|-9---7---5---4-----||
||o-2-------7-------|-2-------9-------|-2-------7-------|-7---5---3---2----o||
||--0-0-0-0-5-5-5-5-|-0-0-0-0-7-7-7-7-|-0-0-0-0-5-5-5-5-|-------------------||
|
|   Gtr IV
|   E E E E E E E E   E E E E E E E E   E E E E E E E E   E E E E E E E E   4x
||--7-0---7-8-0---8-|-7-0-8-7-5-0-3-5-|-7-0---7-8-0---8-|-7-8-5-7-3-5-2-3---||
||o-----8-------8---|-----------------|-----8-------8---|------------------o||
||------------------|-----------------|-----------------|-------------------||
||------------------|-----------------|-----------------|-------------------||
||o-----------------|-----------------|-----------------|------------------o||
||------------------|-----------------|-----------------|-------------------||


 Guitar Break
  E5                      B5        Bb5
  S S S S S S S S S S S S S S S S   S S S S S  S S S S S S S S S S S
|---------------------------------|--------------------------6-6-6-6-|
|---------------------------------|------------------5-5-5-5---------|
|-------------------------4-4-4-4-|-3-3-3-3-6--6-6-6-----------------|
|-2-2-2-2-4-4-4-4-5-5-5-5---------|----------------------------------|
|---------------------------------|----------------------------------|
|---------------------------------|----------------------------------|
|
| Q       H               Q         Q       H.
|---------------------------------|----------------------------------|
|---------------------------------|----------------------------------|
|-------------------------4-------|-3--------------------------------|
|-2-----------------------4-------|-3--------------------------------|
|-2-----------------------2-------|-1--------------------------------|
|-0-------------------------------|----------------------------------|


  B5      C5  B5    E5
  E E E E E E E E   E E E E Q  Q
|-7-7-5-3-------3-|---------3--2--|
|---------5-3-----|-5---3-5-------|
|-------------4---|---4-----------|
|-----------------|---------------|
|-----------------|---------------|
|-----------------|---------------|
|
| Q   Q   Q   Q     W
|-----------------|---------------|
|-----------------|---------------|
|-4-------5---4---|---------------|
|-4-------5---4---|-2-------------|
|-2-------3---2---|-2-------------|
|-----------------|-0-------------|


   3rd Verse
    N.C.
    S S S S S S S S S S S S S S S S   S S S S S S S S S S S S S S S S
||----------------------------------|-------------------------6-6-6-6--|
||o---------------------------------|-----------------5-5-5-5----------|
||--------------------------4-4-4-4-|-3-3-3-3-6-6-6-6------------------|
||--2-2-2-2-4-4-4-4-5-5-5-5---------|----------------------------------|
||o---------------------------------|----------------------------------|
||----------------------------------|----------------------------------|
|
|   S S S S S S S S S S S S S S S S   S S S S S S S S S S S S S S S S
||----------------------------------|----------------------------------|
||o---------------------------------|----------------------------------|
||----------------------------------|----------------------------------|
||----------------------------------|----------------------------------|
||o---------------------------------|----------------------------------|
||--0-0-0-0-0-0-0-0-7-7-7-7-7-7-7-7-|-6-6-6-6-6-6-6-6-6-6-6-6-6-6-6-6--|


  N.C.
  E   E   E   E   E   E   E   E     E   E   E   E   Q       Q        4x
|-7---7---5---3---------------3---|-----------------3-------2--------||
|-----------------5---3-----------|-5-------3---5-------------------o||
|-------------------------4-------|-----4----------------------------||
|---------------------------------|----------------------------------||
|---------------------------------|---------------------------------o||
|---------------------------------|----------------------------------||
|
| S S S S S S S S S S S S S S S S   S S S S S S S S S S S S S S S S  4x
|---------------------------------|----------------------------------||
|---------------------------------|---------------------------------o||
|---------------------------------|----------------------------------||
|---------------------------------|----------------------------------||
|---------------------------------|---------------------------------o||
|-7-7-7-7-7-7-7-7-8-8-8-8-7-7-7-7-|-0-0-0-0-0-0-0-0-0-0-0-0-0-0-0-0--||


 Bridge
  E5         D5         E5         C5    N.C.B5N.C.A5 N.C.
  Gtrs I, II
                                          PM    PM     PM
  W          W          W           E  E  E  E  E  Q   E
|----------|----------|----------|------------------------|
|----------|----------|----------|------------------------|
|----------|----------|----------|------------------------|
|-9--------|-7--------|-9--------|-10-10------------------|
|-7--------|-5--------|-7--------|-10-10-----9-----7------|
|----------|----------|----------|--8--8-(0)-7-(0)-5--(0)-|
|
| Gtr IV
|                                         PM    PM     PM
| W          W          W           E  E  E  E  E  Q   E
|----------|----------|----------|------------------------|
|----------|----------|----------|------------------------|
|-9--------|-7--------|-9--------|------------------------|
|-9--------|-7--------|-9--------|-10-10------------------|
|-7--------|-5--------|-7--------|-10-10-----9-----7------|
|----------|----------|----------|--8--8-(0)-7-(0)-5--(0)-|


  C5         Bb5  F#5    G5         E5
  W          H    H      W          W
|----------|-----------|----------|------|
|----------|-----------|----------|------|
|----------|-----------|----------|------|
|----------|-8----4----|-5--------|-9----|
|-5--------|-8----4----|-5--------|-7----|
|-3--------|-6----2----|-3--------|------|
|
| W          H    H      W          W
|----------|-----------|----------|------|
|----------|-----------|----------|------|
|----------|-----------|----------|------|
|----------|-8----4----|-5--------|-9----|
|-5--------|-8----4----|-5--------|-7----|
|-3--------|-6----2----|-3--------|------|


  D5         E5         N.C.
                        PM----------------|
  W          W          E  E E  E E  E  E  E
|----------|----------|----------------------||
|----------|----------|----------------------||
|----------|----------|------7---------------||
|-7--------|-9--------|----------------------||
|-5--------|-7--------|-7-10---10------12-10-||
|----------|----------|-----------8-12-------||
|
| W          W          W
|----------|----------|----------------------||
|----------|----------|----------------------||
|----------|----------|----------------------||
|-7--------|-9--------|----------------------||
|-5--------|-7--------|----------------------||
|----------|----------|----------------------||


 Chorus
  N.C.
  Gtrs I, III
  E    E    E    E   E    E    E    E
|---------------------------------------|
|-----12---12---12-------13---13---13---|
|-9------------------9------------------|
|---------------------------------------|
|---------------------------------------|
|---------------------------------------|
|
| Gtr II
| S S  S S  S S  S S S S  S S  S S  S S
|---------------------------------------|
|---------------------------------------|
|---------------------------------------|
|---------------------------------------|
|---------------------------------------|
|-0-0--0-0--0-0--0-0-7-7--7-7--7-7--7-7-|


  E    E    E    E    E    E    E    E
|-------------------------12---10--------|
|----------10---12---13-------------13---|
|-9---12---------------------------------|
|----------------------------------------|
|----------------------------------------|
|----------------------------------------|
|
| S S  S S  S S  S S  S S  S S  S S  S S
|----------------------------------------|
|----------------------------------------|
|----------------------------------------|
|----------------------------------------|
|----------------------------------------|
|-0-0--0-0--8-8--8-8--7-7--7-7--5-5--5-5-|


  N.C.                                                          G5  F#5
   E    E    E    E    E    E    E    E      E   E   E   E    a  Q   Q
|-----------------------------------------|-----------------------------|
|-12---12---10--------10---10-------------|------------------10S12--10--|
|----------------12-------------12---11---|-12---9---9---9--------------|
|-----------------------------------------|-----------------------------|
|-----------------------------------------|-----------------------------|
|-----------------------------------------|-----------------------------|
|
|  S S  S S  S S  S S  S S  S S  S S  S S    S S S S S S S S     Q   Q
|-----------------------------------------|-----------------------------|
|-----------------------------------------|-----------------------------|
|-----------------------------------------|-----------------------------|
|-----------------------------------------|----------------------9---7--|
|-----------------------------------------|----------------------9---7--|
|--7-7--7-7--7-7--7-7--5-5--5-5--5-5--5-5-|--0-0-0-0-0-0-0-0-----7---5--|


  E    E    E    E   E    E    E    E
|---------------------------------------|
|-----12---12---12-------13---13---13---|
|-9------------------9------------------|
|---------------------------------------|
|---------------------------------------|
|---------------------------------------|
|
| S S  S S  S S  S S S S  S S  S S  S S
|---------------------------------------|
|---------------------------------------|
|---------------------------------------|
|---------------------------------------|
|---------------------------------------|
|-0-0--0-0--0-0--0-0-7-7--7-7--7-7--7-7-|


  E    E    E    E    E    E    E    E
|-------------------------12---10--------|
|----------10---12---13-------------13---|
|-9---12---------------------------------|
|----------------------------------------|
|----------------------------------------|
|----------------------------------------|
|
| S S  S S  S S  S S  S S  S S  S S  S S
|----------------------------------------|
|----------------------------------------|
|----------------------------------------|
|----------------------------------------|
|----------------------------------------|
|-0-0--0-0--8-8--8-8--7-7--7-7--5-5--5-5-|


                                            ~
   E    E    E    E    E    E    E    E     W
|-----------------------------------------|------|
|-12---12---10--------10---10-------------|------|
|----------------12-------------12---11---|-9----|
|-----------------------------------------|------|
|-----------------------------------------|------|
|-----------------------------------------|------|
|
|  S S  S S  S S  S S  S S  S S  S S  S S   W
|-----------------------------------------|------|
|-----------------------------------------|------|
|-----------------------------------------|------|
|-----------------------------------------|------|
|-----------------------------------------|-2----|
|--7-7--7-7--7-7--7-7--5-5--5-5--5-5--5-5-|-0----|


 Guitar Solo
  E5               G5                E5      C5          B5          E5
  Gtr I
   ~~~~~      TP    TP    TP    ~~
   H.         Q     Q.    Q.    Q     H       S  S  S  S  S  S  S  S
|------------12--|-----------------|------------------12-15p14p12S11--|
|-15-------------|-12--------------|---------------12-----------------|
|-14b16----------|-------14----12--|------------12--------------------|
|----------------|-----------------|-14------14-----------------------|
|----------------|-----------------|----------------------------------|
|----------------|-----------------|----------------------------------|
|
| Gtr II
|  W                W                 Q  E E  Q           Q
|----------------|-----------------|----------------------------------|
|----------------|-----------------|----------------------------------|
|----------------|-----------------|----------------------------------|
|----------------|-----------------|----------5-----------4-----------|
|--2-------------|--5--------------|--2-------3-----------2-----------|
|--0-------------|--3--------------|--0--0-0--------------------------|


 6/4
   H     S  S  S  S  S  S  S  S  S  S  a  E  Q
|-12----------------19p15----------------19-15--|
|----------------17-------17----------17--------|
|-------------16-------------16----16-----------|
|----------17-------------------17--------------|
|-------19--------------------------------------|
|-----------------------------------------------|
|
|  H     H                       E        E  Q
|-----------------------------------------------|
|-----------------------------------------------|
|-----------------------------------------------|
|-----------------------------------------------|
|--2----------------------------------------12--|
|--0----------------------------------------10--|


 4/4
   +S   S  S  S  S  S  S  S  S  S  S  S  S  S  S  S
|-(15)-19-17-15-19-17-15-14-17-15-14-12-15-14-12-11--|
|----------------------------------------------------|
|----------------------------------------------------|
|----------------------------------------------------|
|----------------------------------------------------|
|----------------------------------------------------|
|
|   Q            Q           Q           Q
|----------------------------------------------------|
|----------------------------------------------------|
|----------------------------------------------------|
|----------------------------------------------------|
|--10------------------------9-----------------------|
|---8------------------------7-----------------------|


  E5                                              D#5        E5
   \0.5/        \0.5/          \1/  \1/  \0.25/    \0.5/
   ~~~~~~
   H            H              E    E    Q         H
|-12-----------12-----------|----------------------------------|
|---------------------------|-15---12--------------------------|
|---------------------------|-----------14--------12-----------|
|---------------------------|----------------------------------|
|---------------------------|----------------------------------|
|---------------------------|----------------------------------|
|
|  E     E E E  E     E E E    E    E    E      E  E     E E E
|---------------------------|----------------------------------|
|---------------------------|----------------------------------|
|---------------------------|----------------------------------|
|--9---------9--------9-----|--9----------------9----------8-9-|
|--7---------7--------7-----|--7----------------7----------6-7-|
|--------0-0----0-------0-0-|-------0----0---------0-----0-----|


  G5                         N.C.
                                            \4    \0.5/
                                            ~~~~
    H.             E    E      +H           Q     Q
|-[15]-----------[15]-[15]-|-([15])----------------------|
|--------------------------|-----------------------------|
|--------------------------|--------------/14---<12>-----|
|--------------------------|-----------------------------|
|--------------------------|-----------------------------|
|--------------------------|-----------------------------|
|
|   E  E E E E E   E    E       E   E E E   Q     Q
|--------------------------|-----------------------------|
|--------------------------|-----------------------------|
|--------------------------|-----------------------------|
|--------------------------|----------4-5---7-----5------|
|--------5---5----------5--|--------7--------------------|
|---3--3-3-3-3-3---3----3--|----3------------------------|


  A5                   N.C.    C5          D5
    +E   Q.       E  E  E  E    E  E  E  E  E  E  E  E
|---------------/17-15-12----|-------12----------------|
|-------------------------15-|-12-------15-12----------|
|-(<12>)---------------------|----14----------15-14-12-|
|----------------------------|-------------------------|
|----------------------------|-------------------------|
|----------------------------|-------------------------|
|
|    E   E  E E   E  E  E  E    E  E  E  E  E  E  E  E
|----------------------------|-------------------------|
|----------------------------|-------------------------|
|----------------------------|-------------------------|
|-----------------------9-10-|-------------------------|
|-----------7-7--------------|-10-10-10----12-12-12----|
|----5---5--5-5---5--5-------|--8--8--8----10-10-10----|


  N.C.
        |---3----|       |---3----|         |---3----|
   Q    E     E  E  Q    E     E  E    Q    E     E  E  Q   Q
|-----------------------------------|---------------------------|
|-----------------------------------|---------------------------|
|-----------------------------------|---------------------------|
|-14---14----14-14-14---14----14-14-|-14---14----14-14-17--16---|
|-----------------------------------|---------------------------|
|-----------------------------------|---------------------------|
|
|  E E  Q           E E  Q             E E  Q           Q   Q
|-----------------------------------|---------------------------|
|-----------------------------------|---------------------------|
|-----------------------------------|---------------------------|
|-----------------------------------|---------------------------|
|-------7tr6-------------7tr6-------|-------7tr6-------10---9---|
|--0-0--------------0-0-------------|--0-0----------------------|


  N.C.
   E  S  S  S     S  S  S  S   S  S  S  S     S  S  S
|----------------------12s15-/19p15-------------------|
|-------------------12--------------17-------------17-|
|----------------12--------------------16-------16----|
|----------14--------------------------------17-------|
|-------14--------------------------------------------|
|-12-15-----------------------------------------------|
|
|  E  E     Q              E      E     Q
|-----------------------------------------------------|
|-----------------------------------------------------|
|-----------------------------------------------------|
|-----------------------------------------------------|
|-----------7tr6------------------------7tr6----------|
|--0--0--------------------0------0-------------------|


         ~~
   S  S  S  S  a  S     S  S  E     Q..
|-19p15----------15----19p15---------------|
|-------17----17-------------17----17------|
|----------16------------------------------|
|------------------------------------------|
|------------------------------------------|
|------------------------------------------|
|
|  E     E        Q              Q      Q
|------------------------------------------|
|------------------------------------------|
|------------------------------------------|
|------------------------------------------|
|-----------------7tr6----------10------9--|
|--0-----0---------------------------------|


  E5                                            D#E5
    \2        \2/          \0.25/    \1
    ~~~~~~~~~~~~~~                          ~~
    H         H            Q         E   E  H
|-----------------------|-----------19-----24-------|
|------------20---------|---------------20----------|
|-/21-------------------|-21------------------------|
|-----------------------|---------------------------|
|-----------------------|---------------------------|
|-----------------------|---------------------------|
|
|   E  E E E  E   E E E    E      E  E   E  E E E E
|-----------------------|---------------------------|
|-----------------------|---------------------------|
|-----------------------|---------------------------|
|---9------9------9-----|--9-------------9------8-9-|
|---7------7------7-----|--7-------------7------6-7-|
|------0-0----0-----0-0-|---------0--0------0-0-----|


  G5
  PM-----------------------------|
  S S S S S S S S S S S S S S  S  S
|------------------------------------|
|------------------------------------|
|------------------------------------|
|------------------------------------|
|------------------------------------|
|-0-2-3-2-3-5-3-5-7-5-7-8-7-8-10-12--|
|
| E   E   E   E   E   E   E    E
|------------------------------------|
|------------------------------------|
|------------------------------------|
|------------------------------------|
|---------5-------5------------5-----|
|-3---3---3---3---3---3---3----3-----|


  N.C.
  PM---------------------------|
  S  S  S S  S  S S  S  S S  S  S S  S  S S
|-------------------------------------------|
|-------------------------------------------|
|---------------------------------9-11-12---|
|---------9-10-12---------9-10-12---------9-|
|-9-10-12---------9-10-12-------------------|
|-------------------------------------------|
|
| E     E    E    E     Q         Q
|-------------------------------------------|
|-------------------------------------------|
|-------------------------------------------|
|------------4----5-----7---------5---------|
|-------7-----------------------------------|
|-3-----------------------------------------|


  A5                                 N.C.
   S  S S  S  S  S  S  S  S  S  S  S  S  S  S S
|------------------------12-10------------------|
|---------------10-12-13-------13-12-10---------|
|-------9-11-12-------------------------12-11-9-|
|-10-12-----------------------------------------|
|-----------------------------------------------|
|-----------------------------------------------|
|
|  E    E     E     E     E     E     E     E
|-----------------------------------------------|
|-----------------------------------------------|
|-----------------------------------------------|
|-------------------------------------9----10---|
|-------------7-----7---------------------------|
|--5----5-----5-----5-----5-----5---------------|


  C5          D5
   PM--------------------------|
   S  S  S  S  S S  S  S  S  S  S S  S  S  S S
|----------------------------------------------|
|----------------------------------------------|
|---------------------------------9-11-12-11-9-|
|-12-10--9----------------9-10-12--------------|
|----------12-10-9-10-12-----------------------|
|----------------------------------------------|
|
|  E     E     E    E     E     E    E     E
|----------------------------------------------|
|----------------------------------------------|
|----------------------------------------------|
|----------------------------------------------|
|-10----10----10---------12----12---12---------|
|--8-----8-----8---------10----10---10---------|


     N.C.
   S  S S  S  S    S  S  S  S  S  S  S  S     S S  S
|----------------------------------------------------|
|--------------------------10-13-12-10---------------|
|------------------9-11-12-------------12----11-9-11-|
|-12-10-9-10-12--------------------------------------|
|----------------------------------------------------|
|----------------------------------------------------|
|
|  E    E     Q             E     E     Q
|----------------------------------------------------|
|----------------------------------------------------|
|----------------------------------------------------|
|----------------------------------------------------|
|-------------7tr6----------------------7tr6---------|
|--0----0-------------------0-----0------------------|


     N.C.                                             E5
                                                       ~~
   S  S  S  S  S     S  S  S  S  S S  S  S  S  S  S    W
|----------12-10------------------------------------|-12----|
|----10-12----------13-12-10---------------10-12-13-|-------|
|-12-------------------------12-11-9-11-12----------|-------|
|---------------------------------------------------|-------|
|---------------------------------------------------|-------|
|---------------------------------------------------|-------|
|
|  E     E     Q              Q          Q             W
|---------------------------------------------------|-------|
|---------------------------------------------------|-------|
|---------------------------------------------------|-------|
|---------------------------------------------------|-------|
|--------------7tr6----------10----------9----------|--2----|
|--0-----0------------------------------------------|--0----|


  N.C.
  Gtr I
~~~~~~~~~~~~~~~~~~~~~~~~~~~~~~~~~~~~~~~~~~~~~~~~~~~~~~~~~~~~~~~~~~~~~~~~~
   E  E  E  E  E  E  E  E    +E   E  E  H    E    E  E  E  E  E  E  E  E
|-12-14-15-17-15-14-12-17-|-(17)-19p17-15------|-------------------------|
|-------------------------|--------------------|-------------------------|
|-------------------------|--------------------|-19-17-16----------------|
|-------------------------|--------------------|----------19-17-16-14-16-|
|-------------------------|--------------------|-------------------------|
|-------------------------|--------------------|-------------------------|
|
| Gtr II
|~~~~~~~~~~~~~~~~~~~~~~~~~~~~~~~~~~~~~~~~~~~~~~~~~~~~~~~~~~~~~~~~~~~~~~~~
|  E  E  E  E  E  E  E  E    +E   E  E  H    E    E  E  E  E  E  E  E  E
|-------------------------|--------------------|-------------------------|
|-------------------------|--------------------|-------------------------|
|--9-11-12-14-12-11--9-14-|-(14)-16-14-12------|-------------------------|
|-------------------------|--------------------|-10--9--7----------------|
|-------------------------|--------------------|----------10--9--7--9--7-|
|-------------------------|--------------------|-------------------------|


 Interlude
  N.C.
   W                  W                 W                  W
|------------------|------------------|-----------------|------------------|
|------------------|------------------|-----------------|------------------|
|------------------|------------------|-----------------|------------------|
|-14---------------|------------------|-----------------|------------------|
|------------------|------------------|-----------------|------------------|
|------------------|------------------|-----------------|------------------|
|
|  W                  W                 W                  W
|------------------|------------------|-----------------|------------------|
|------------------|------------------|-----------------|------------------|
|------------------|------------------|-----------------|------------------|
|-14---------------|------------------|-----------------|------------------|
|------------------|------------------|-----------------|------------------|
|------------------|------------------|-----------------|------------------|
|
| Gtr III
|  E E E E E E E E   +E  E E E Q  E E   E E E E E E E E   +E  E E E Q  E E
|----------------7-|-(7)-------5------|---------------7-|-(7)-------5------|
|------5---8---5---|-------7------8-7-|-----5---8---5---|-------7------8-7-|
|----4---4---4-----|-----4---4--------|---4---4---4-----|-----4---4--------|
|------------------|------------------|-----------------|------------------|
|--7---------------|------------------|-7---------------|------------------|
|------------------|------------------|-----------------|------------------|


  C5                                   G5                B5
  W                 +W                 W                  W
|-----------------|------------------|-----------------|------------------|
|-----------------|------------------|-----------------|------------------|
|-5---------------|-(5)--------------|-----------------|--4---------------|
|-5---------------|-(5)--------------|-5---------------|--4---------------|
|-3---------------|-(3)--------------|-5---------------|--2---------------|
|-----------------|------------------|-3---------------|------------------|
|
| W                 +W                 W                  W
|-----------------|------------------|-----------------|------------------|
|-----------------|------------------|-----------------|------------------|
|-5---------------|-(5)--------------|-----------------|--4---------------|
|-5---------------|-(5)--------------|-5---------------|--4---------------|
|-3---------------|-(3)--------------|-5---------------|--2---------------|
|-----------------|------------------|-3---------------|------------------|
|
| E E E E E E E E   +E  E E E Q  E E   E E E E E E E E   +E  E E E Q  E E
|---------------7-|-(7)-------5------|---------------7-|-(7)-------5------|
|-----5---8---5---|-------7------8-7-|-----5---8---5---|-------7------8-7-|
|---4---4---4-----|-----4---4--------|---4---4---4-----|-----4---4--------|
|-----------------|------------------|-----------------|------------------|
|-7---------------|------------------|-7---------------|------------------|
|-----------------|------------------|-----------------|------------------|


  E5     B5       E5 N.C.          B5     A5       E5     G5 F#5
  Q  E E Q  E E   Q  E E E E E E   E E Q  E E Q    E E Q  Q  Q
|---------------|----------------|---------------|--------------|
|---------------|----------------|---------------|--------------|
|---------------|----------------|---------------|--------------|
|---------------|-2--------------|---------------|--------------|
|-2------9------|-2--------7-5---|-9-9-9--7-7-7--|-2-2-2--5--4--|
|-0--0-0-7--7-7-|-0--3-5-8-----8-|-7-7-7--5-5-5--|-0-0-0--3--2--|
|
| Q  E E Q  E E   Q  E E E E E E   E E Q  E E Q    E E Q  Q  Q
|---------------|----------------|---------------|--------------|
|---------------|----------------|---------------|--------------|
|---------------|----------------|---------------|--------------|
|---------------|-2--------------|---------------|--------------|
|-2------9------|-2--------7-5---|-9-9-9--7-7-7--|-2-2-2--5--4--|
|-0--0-0-7--7-7-|-0--3-5-8-----8-|-7-7-7--5-5-5--|-0-0-0--3--2--|


   Out-Chorus
    N.C.
    E    E    E    E   E    E    E    E
||----------------------------------------|
||o-----12---12---12-------13---13---13---|
||--9------------------9------------------|
||----------------------------------------|
||o---------------------------------------|
||----------------------------------------|
|
|   S S  S S  S S  S S S S  S S  S S  S S
||----------------------------------------|
||o---------------------------------------|
||----------------------------------------|
||----------------------------------------|
||o---------------------------------------|
||--0-0--0-0--0-0--0-0-7-7--7-7--7-7--7-7-|


  E    E    E    E    E    E    E    E
|-------------------------12---10---------|
|----------10---12---13-------------13----|
|-9---12----------------------------------|
|-----------------------------------------|
|-----------------------------------------|
|-----------------------------------------|
|
| S S  S S  S S  S S  S S  S S  S S  S S
|-----------------------------------------|
|-----------------------------------------|
|-----------------------------------------|
|-----------------------------------------|
|-----------------------------------------|
|-0-0--0-0--8-8--8-8--7-7--7-7--5-5--5-5--|


  N.C.                                                       G5    F#5
   E    E    E    E    E    E    E    E      E   E   E   E    E  E  Q   3x
|-----------------------------------------|------------------------12---||
|-12---12---10--------10---10-------------|------------------10-12-----o||
|----------------12-------------12---11---|-12---9---9---9--------------||
|-----------------------------------------|-----------------------------||
|-----------------------------------------|----------------------------o||
|-----------------------------------------|-----------------------------||
|
|  S S  S S  S S  S S  S S  S S  S S  S S    S S S S S S S S  Q     Q   3x
|-----------------------------------------|-----------------------------||
|-----------------------------------------|----------------------------o||
|-----------------------------------------|-----------------------------||
|-----------------------------------------|-------------------5-----4---||
|-----------------------------------------|-------------------5-----4--o||
|--7-7--7-7--7-7--7-7--5-5--5-5--5-5--5-5-|--0-0-0-0-0-0-0-0--3-----2---||


  N.C.
  E    E    E    E   E    E    E    E
|---------------------------------------|
|-----12---12---12-------13---13---13---|
|-9------------------9------------------|
|---------------------------------------|
|---------------------------------------|
|---------------------------------------|
|
| S S  S S  S S  S S S S  S S  S S  S S
|---------------------------------------|
|---------------------------------------|
|---------------------------------------|
|---------------------------------------|
|---------------------------------------|
|-0-0--0-0--0-0--0-0-7-7--7-7--7-7--7-7-|


  E    E    E    E    E    E    E    E
|-------------------------12---10--------|
|----------10---12---13-------------13---|
|-9---12---------------------------------|
|----------------------------------------|
|----------------------------------------|
|----------------------------------------|
|
| S S  S S  S S  S S  S S  S S  S S  S S
|----------------------------------------|
|----------------------------------------|
|----------------------------------------|
|----------------------------------------|
|----------------------------------------|
|-0-0--0-0--8-8--8-8--7-7--7-7--5-5--5-5-|


  B5          A5            E5     G5 F#5
   E  E  E  E  E  E  E  E   Q  H.
|-------------------------|--------------|
|-12-12-10----10-10-------|--------------|
|----------12-------12-11-|-9------------|
|-------------------------|--------------|
|-------------------------|--------------|
|-------------------------|--------------|
|
|  H           H            H      Q  Q
|-------------------------|--------------|
|-------------------------|--------------|
|-------------------------|--------------|
|-------------------------|--------5--4--|
|--9-----------7----------|-2------5--4--|
|--7-----------5----------|-0------3--2--|


       E5
       Gtrs I, IV
  H    E E Q    E E Q  H
|-------------|-------------*|
|-------------|-------------*|
|------9-9-9--|-9-9-9-------*|
|------9-9-9--|-9-9-9-------*|
|------7-7-7--|-7-7-7-------*|
|-------------|-------------*|
|
| H    E E Q    E E Q  H
|-------------|-------------*|
|-------------|-------------*|
|-------------|-------------*|
|------2-2-2--|-2-2-2-------*|
|------2-2-2--|-2-2-2-------*|
|------0-0-0--|-0-0-0-------*|


Duration Legend
---------------
W - whole; H - half; Q - quarter; E - 8th; S - 16th; T - 32nd; X - 64th; a - acciaccatura
+ - note tied to previous; . - note dotted; .. - note double dotted
Uncapitalized letters represent notes that are staccato (1/2 duration)
Irregular groupings are notated above the duration line
Duration letters will always appear directly above the note/fret number it represents the
duration for.  Duration letters with no fret number below them represent rests.  Multi-
bar rests are notated in the form Wxn, where n is the number of bars to rest for.  Low
melody durations appear below the staff

Tablature Legend
----------------
 h   - hammer-on
 p   - pull-off
 b   - bend
 pb  - pre-bend
 r   - bend release (if no number after the r, then release immediately)
 /\  - slide into or out of (from/to "nowhere")
 s   - legato slide
 S   - shift slide
<n>  - natural harmonic
[n]  - artificial harmonic
n(n) - tapped harmonic
 ~   - vibrato
 tr  - trill
 T   - tap
 TP  - trem. picking
 PM  - palm muting
\n/  - tremolo bar dip; n = amount to dip
 \n  - tremolo bar down
 n/  - tremolo bar up
/n\  - tremolo bar inverted dip
 =   - hold bend; also acts as connecting device for hammers/pulls
 <>  - volume swell (louder/softer)
 x   - on rhythm slash represents muted slash
 o   - on rhythm slash represents single note slash

Misc Legend
-----------
 |  - bar
||  - double bar
||o - repeat start
o|| - repeat end
*|  - double bar (ending)
 :  - bar (freetime)
 $  - Segno
 &  - Coda
Tempo markers - <E/E./Q/Q./H/H.> = BPM(8/16=s8/s16), where s8 = swing 8ths, s16 = swing 16ths
comments
print report bad tab
3 comments total. show 1 bad comment
+2 reply
Mtn._Slider wrote on April 22 2009, 02:58 pm

spot on in my eyes i love this song and its alot of fun to play thx

0 reply
elimination123 wrote on June 19 2010, 12:10 am

Very Nice Tab, Excellent work, it's a great choice of song to tab out for us.

I want to post or [tab]
guest
You may want to rate the tab now too:
select rating
Please do not post tabs as comments. Select "correction" instead!