Oops, an error
Loading. Please wait.

Touch Like Angel Of Death Bass Tab

477 views 1 this week
no commentswrite comment
1 2 3 4 5
worth learning
x 1
Autoscroll
+/-
esc
set tempo
stop
Contributor
WARNING: You are trying to view
                                    content from Ultimate-Guitar.com
                                    in an unauthorized application,
                                    which is prohibited.

                                    Please use an official Ultimate
                                    Guitar Tabs application for iPhone,
                                    iPad or Android to access legitimate
                                    chords, guitar, bass, and drum tabs
                                    from Ultimate-Guitar.com database.

                                    Type "ultimate guitar tabs" in Apple
                                    App Store's or Android Market's
                                    search to find the application.
tune down
                                                                              
G||------------------|------------------|------------------|------------------|
D||------------------|------------------|------------------|------------------|
A||------------------|------------------|------------------|------------------|
E||------------------|------------------|------------------|------------------|
B||------------------|------------------|------------------|------------------|


                                                            
-------------------|-------------------|-------------------|
-------------------|-------------------|-------------------|
--6----------------|--6----------------|--6----------------|
-------------------|-------------------|-------------------|
-------------------|-------------------|-------------------|


                                                                                
---------------------|-------------------|------------------|------------------|
------------4--------|--1----------------|------------------|------------------|
--6----6-------------|-------------------|------------------|------------------|
---------------------|-------------------|------------------|------------------|
---------------------|-------------------|------------------|------------------|


                                                                            
------------------|------------------|------------------|------------------|
------------------|------------------|------------------|------------------|
------------------|------------------|------------------|------------------|
------------------|------------------|------------------|------------------|
------------------|------------------|------------------|------------------|


                                                                            
---------------------|--------------------------|--------------------------|
---------------------|--------------------------|-----------3--------------|
---------------------|--1--1--1--1--------------|--1--1--1-----1--1--------|
--6----4----2--------|--------------4--4--4--4--|--------------------------|
---------------------|--------------------------|--------------------4--4--|


                                                                             
--------------------------|----------------------|--------------------------|
--------------------------|----------------------|--------------------------|
--1--1--1--1--------------|--1-------------------|--1--1--1--1--------------|
--------------4--4--4--4--|-------4----2----1----|--------------4--4--4--4--|
--------------------------|----------------------|--------------------------|


                                                                             
--------------------------|--------------------------|----------------------|
-----------3--------------|--------------------------|----------------------|
--1--1--1-----1--1--------|--1--1--1--1--------------|--1-------------------|
--------------------------|--------------4--4--4--4--|-------4----2----1----|
--------------------4--4--|--------------------------|----------------------|


                                                      
--------------------------|--------------------------|
--------------------------|-----------3--------------|
--1--1--1--1--------------|--1--1--1-----1--1--------|
--------------4--4--4--4--|--------------------------|
--------------------------|--------------------4--4--|


                                                                             
--------------------------|----------------------|--------------------------|
--------------------------|----------------------|--------------------------|
--1--1--1--1--------------|--1-------------------|--1--1--1--1--------------|
--------------4--4--4--4--|-------4----2----1----|--------------4--4--4--4--|
--------------------------|----------------------|--------------------------|


                                                                             
--------------------------|--------------------------|----------------------|
-----------3--------------|--------------------------|----------------------|
--1--1--1-----1--1--------|--1--1--1--1--------------|--1-------------------|
--------------------------|--------------4--4--4--4--|-------4----2----1----|
--------------------4--4--|--------------------------|----------------------|


                                                                                
--------------------|-------------------|-------------------|------------------|
--------------------|-------------------|--1----------------|------------------|
--------------------|-------------------|-------------------|------------------|
------1--------0----|--4----------------|-------------------|------------------|
--------------------|-------------------|-------------------|------------------|


                                                                               
-------------------|------------------|--18----------------|------------------|
-------------------|------------------|--------------------|------------------|
-------------------|------------------|--------------------|------------------|
--6----------------|------------------|--------------------|------------------|
-------------------|------------------|--------------------|------------------|


                                                                            
------------------|------------------|------------------|------------------|
------------------|------------------|------------------|------------------|
------------------|------------------|------------------|------------------|
------------------|------------------|------------------|------------------|
------------------|------------------|------------------|------------------|


                                                                             
------------------|------------------|-------------------|------------------|
------------------|------------------|-------------------|------------------|
------------------|------------------|--2----------------|------------------|
------------------|------------------|-------------------|------------------|
------------------|------------------|-------------------|------------------|


                                                                
-------------------|-------------------|--------------3--------|
-------------------|-------------------|-----------------------|
-------------------|--1----------------|--1--------1-----1--1--|
--2----------------|-------------------|-----------------------|
-------------------|-------------------|-----------------------|


                                                                         
-----------------------|------------------------|-----------------------|
-----------------------|------------------------|-----------------------|
--1-----------2--1-----|----1--1--1----1--1--1--|----1--1--1------------|
-----------4--------4--|------------------------|-------------2----1----|
-----------------------|------------------------|-----------------------|


                                                              
------------------------------|------------------------------|
------------------------------|------------------------------|
----1-1-1-1-1-1---2-2-2-2-2-2-|------2-2-2-2-----------------|
------------------------------|--------------1-1-1-1-4-4-4-4-|
------------------------------|------------------------------|


                                                        
----------------------------------|--------------------|
----------------------------------|--------------------|
--1-1-1-1-1-1-1-1-----------------|--------------------|
------------------4-4-4-4-4-4-4-4-|----------2----1----|
----------------------------------|--------------------|


                                                              
------------------------------|------------------------------|
------------------------------|------------------------------|
----1-1-1-1-1-1---2-2-2-2-2-2-|------2-2-2-2-----------------|
------------------------------|--------------1-1-1-1-4-4-4-4-|
------------------------------|------------------------------|


                                                        
----------------------------------|--------------------|
----------------------------------|--------------------|
--1-1-1-1-1-1-1-1-----------------|--------------------|
------------------4-4-4-4-4-4-4-4-|----------2----1----|
----------------------------------|--------------------|


                                                              
------------------------------|------------------------------|
------------------------------|------------------------------|
----1-1-1-1-1-1---2-2-2-2-2-2-|------2-2-2-2-----------------|
------------------------------|--------------1-1-1-1-4-4-4-4-|
------------------------------|------------------------------|


                                                        
----------------------------------|--------------------|
----------------------------------|--------------------|
--1-1-1-1-1-1-1-1-----------------|--------------------|
------------------4-4-4-4-4-4-4-4-|----------2----1----|
----------------------------------|--------------------|


                                                              
------------------------------|------------------------------|
------------------------------|------------------------------|
----1-1-1-1-1-1---2-2-2-2-2-2-|------2-2-2-2-----------------|
------------------------------|--------------1-1-1-1-4-4-4-4-|
------------------------------|------------------------------|


                                                                             
----------------------------------|--------------------|--------------------|
----------------------------------|--------------------|--------------------|
--1-1-1-1-1-1-1-1-----------------|--------------------|--2--2--------------|
------------------4-4-4-4-4-4-4-4-|----------2----1----|--------------------|
----------------------------------|--------------------|--------------------|


                                                                       
--------------------|--------------------|----------------------------|
--------------------|--------------------|------1----4---3---1----0---|
--------------------|--------------------|--1-------------------------|
--1--1--------------|--0--0--------------|----------------------------|
--------------------|--------------------|----------------------------|


                                                                               
------------------------|--------------------------|--------------------------|
--1--------0---1--------|--------------------------|-----------3--------------|
------1-----------------|--1--1--1--1--------------|--1--1--1-----1--1--------|
------------------------|--------------4--4--4--4--|--------------------------|
------------------------|--------------------------|--------------------4--4--|


                                                                             
--------------------------|----------------------|--------------------------|
--------------------------|----------------------|--------------------------|
--1--1--1--1--------------|--1-------------------|--1--1--1--1--------------|
--------------4--4--4--4--|-------4----2----1----|--------------4--4--4--4--|
--------------------------|----------------------|--------------------------|


                                                                             
--------------------------|--------------------------|----------------------|
-----------3--------------|--------------------------|----------------------|
--1--1--1-----1--1--------|--1--1--1--1--------------|--1-------------------|
--------------------------|--------------4--4--4--4--|-------4----2----1----|
--------------------4--4--|--------------------------|----------------------|


                                                      
--------------------------|--------------------------|
--------------------------|-----------3--------------|
--1--1--1--1--------------|--1--1--1-----1--1--------|
--------------4--4--4--4--|--------------------------|
--------------------------|--------------------4--4--|


                                                                             
--------------------------|----------------------|--------------------------|
--------------------------|----------------------|--------------------------|
--1--1--1--1--------------|--1-------------------|--1--1--1--1--------------|
--------------4--4--4--4--|-------4----2----1----|--------------4--4--4--4--|
--------------------------|----------------------|--------------------------|


                                                                             
--------------------------|--------------------------|----------------------|
-----------3--------------|--------------------------|----------------------|
--1--1--1-----1--1--------|--1--1--1--1--------------|--1-------------------|
--------------------------|--------------4--4--4--4--|-------4----2----1----|
--------------------4--4--|--------------------------|----------------------|


                                                               
--------------------|-------------------|---------------------|
--------------------|-------------------|---------------------|
--1------------1----|--0----------------|--1--------2----1----|
--------------------|-------------------|---------------------|
--------------------|-------------------|---------------------|


                                                              
-------------------|--------------------|--------------------|
-------------------|--------------------|-----------1--------|
--1----------------|--1--------1--------|--0-----------------|
-------------------|--------------------|--------------------|
-------------------|--------------------|--------------------|


                                                               
---------------------|-------------------|--------------------|
---------------------|-------------------|--------------------|
--1--------2----1----|--1----------------|--1--------1--------|
---------------------|-------------------|--------------------|
---------------------|-------------------|--------------------|


                                                               
--------------------|---------------------|-------------------|
-----------1--------|---------------------|-------------------|
--0-----------------|--1--------2----1----|--1----------------|
--------------------|---------------------|-------------------|
--------------------|---------------------|-------------------|


                                                                
--------------------|--------------------|---------------------|
--------------------|-----------1--------|---------------------|
--1--------1--------|--0-----------------|--1--------2----1----|
--------------------|--------------------|---------------------|
--------------------|--------------------|---------------------|


                                                              
-------------------|--------------------|--------------------|
-------------------|--------------------|-----------1--------|
--1----------------|--1--------1--------|--0-----------------|
-------------------|--------------------|--------------------|
-------------------|--------------------|--------------------|


                                                               
---------------------|-------------------|--------------------|
---------------------|-------------------|--------------------|
--1--------2----1----|--1----------------|--1--------1--------|
---------------------|-------------------|--------------------|
---------------------|-------------------|--------------------|


                                                               
--------------------|---------------------|-------------------|
-----------1--------|---------------------|-------------------|
--0-----------------|--1--------2----1----|--1----------------|
--------------------|---------------------|-------------------|
--------------------|---------------------|-------------------|


                                                             
-------------------|--------------------|-------------------|
-------------------|--------------------|-------------------|
--1----------------|--------------------|--1----------------|
-------------------|--2--------1--------|-------------------|
-------------------|--------------------|-------------------|


                                                                
---------------------|-------------------|-------2-------------|
---------------------|-------------------|---------------------|
--2------1-----------|-------------------|--0---------0--------|
--------------4------|--2----------------|---------------------|
---------------------|-------------------|---------------------|


                                                             
-------------------|-------------------|--------------------|
-------------------|-------------------|--------------------|
-------------------|--1----------------|--------------------|
--2----------------|-------------------|--2--------1--------|
-------------------|-------------------|--------------------|


                                                                              
-------------------|--------------------------|------------------------------|
-------------------|-----2--5--2--------------|------------------------------|
--1----------------|--4--------------1--4--2--|----1-1-1-1-1-1---2-2-2-2-2-2-|
-------------------|--------------2-----------|------------------------------|
-------------------|--------------------------|------------------------------|


                                                                  
------------------------------|----------------------------------|
------------------------------|----------------------------------|
------2-2-2-2-----------------|--1-1-1-1-1-1-1-1-----------------|
--------------1-1-1-1-4-4-4-4-|------------------4-4-4-4-4-4-4-4-|
------------------------------|----------------------------------|


                                                    
--------------------|------------------------------|
--------------------|------------------------------|
--------------------|----1-1-1-1-1-1---2-2-2-2-2-2-|
----------2----1----|------------------------------|
--------------------|------------------------------|


                                                                  
------------------------------|----------------------------------|
------------------------------|----------------------------------|
------2-2-2-2-----------------|--1-1-1-1-1-1-1-1-----------------|
--------------1-1-1-1-4-4-4-4-|------------------4-4-4-4-4-4-4-4-|
------------------------------|----------------------------------|


                                                                              
--------------------|------------------|------------------|------------------|
--------------------|------------------|------------------|------------------|
--------------------|------------------|------------------|------------------|
----------2----1----|------------------|------------------|------------------|
--------------------|------------------|------------------|------------------|


                                                                            
------------------|------------------|------------------|------------------|
------------------|------------------|------------------|------------------|
------------------|------------------|------------------|------------------|
------------------|------------------|------------------|------------------|
------------------|------------------|------------------|------------------|


                                                                            
------------------|------------------|------------------|------------------|
------------------|------------------|------------------|------------------|
------------------|------------------|------------------|------------------|
------------------|------------------|------------------|------------------|
------------------|------------------|------------------|------------------|


                                       
------------------|------------------||
------------------|------------------||
------------------|------------------||
------------------|------------------||
------------------|------------------||
comments
We did not receive enough feedback on this tab! Please rate:
print report bad tab
1 2 3 4 5
I want to post or [tab]
guest
You may want to rate the tab now too:
select rating
Please do not post tabs as comments. Select "correction" instead!