Oops, an error
Loading. Please wait.

Touch Like Angel Of Death Live Tab

ver1
ver1

Whole song

Interactive

More versions @911Tabs.com
4,722 views 9 this week
2 commentsread comments
1 2 3 4 5
excellent!
x 3
Autoscroll
+/-
esc
set tempo
stop
Contributor
NEW! There's an official Ultimate Guitar app which is ideal
for learning songs when you're away from computer. Get the app
WARNING: You are trying to view
                                    content from Ultimate-Guitar.com
                                    in an unauthorized application,
                                    which is prohibited.

                                    Please use an official Ultimate
                                    Guitar Tabs application for iPhone,
                                    iPad or Android to access legitimate
                                    chords, guitar, bass, and drum tabs
                                    from Ultimate-Guitar.com database.

                                    Type "ultimate guitar tabs" in Apple
                                    App Store's or Android Market's
                                    search to find the application.
                         Touch Like An Angel Of Death 
                          


                                                                        Played by Alexi Liaho
Live from Album: Tokyo Warhearts LIVE
(Intro from the soundtrack to "The Rock" by Hans Zimmer)
Submitted by Scorpyr

                                                            
E||------------------|------------------|------------------|
B||------------------|------------------|------------------|
G||------------------|------------------|------------------|
D||------------------|------------------|------------------|
A||------------------|------------------|------------------|
E||------------------|------------------|------------------|


                                                                       
--------------------|------------------------|------------------------|
--------------------|------------------------|------------------------|
--------------------|------------------------|------------------------|
----------------5-4-|-----------4-5~-----5-7-|--5~-----4---4~-----5-4-|
--------------------|--7~-----7--------------|-----------7------------|
--------------------|------------------------|------------------------|


                                                    
------------------------|--------------------------|
------------------------|--------------------------|
-------------5~-----4---|--4~-----5-4--------12-11-|
---------5-4----------7-|-------------7~-----------|
--7~--------------------|--------------------------|
------------------------|--------------------------|


                                                           
----------------------------|-----------------------------|
-------------------------10-|-----------------------------|
--9~-----9-11-12~-----12----|--12~-----11-9-11~-----12-11-|
----------------------------|-----------------------------|
----------------------------|-----------------------------|
----------------------------|-----------------------------|


                                                             
-----------------------------|------------------------------|
---------------13~-----13-12-|--12~-----13-12-10~-----------|
--9~-----12-11---------------|------------------------12-11-|
-----------------------------|------------------------------|
-----------------------------|------------------------------|
-----------------------------|------------------------------|


                                                           
----------------------------|-----------------------------|
-------------------------10-|-----------------------------|
--9~-----9-11-12~-----12----|--12~-----11-9-11~-----12-11-|
----------------------------|-----------------------------|
----------------------------|-----------------------------|
----------------------------|-----------------------------|


                                                                               
-----------------------------|----------------------------|-------------------|
---------------13~-----13-12-|--12~-----13-12-10----------|-------------------|
--9~-----12-11---------------|----------------------------|-------------------|
-----------------------------|----------------------------|--2----------------|
-----------------------------|----------------------------|--2----------------|
-----------------------------|----------------------12/---|--0----------------|


                                                                            
------------------|------------------|------------------|------------------|
------------------|------------------|------------------|------------------|
------------------|------------------|------------------|------------------|
------------------|------------------|------------------|------------------|
------------------|------------------|------------------|------------------|
------------------|------------------|------------------|------------------|


                                                                  
----------------------------------|------------------------------|
-------------------------------12-|------------------------------|
--14-13-11~---11-13-14~-----14----|--14~-----13-11-13~-----14-13-|
----------------------------------|------------------------------|
----------------------------------|------------------------------|
----------------------------------|------------------------------|


                                                             
-----------------------------|------------------------------|
---------------15~-----15-14-|--14~-----15-14-12------------|
--11~-----14-x---------------|------------------------14-13-|
-----------------------------|------------------------------|
-----------------------------|------------------------------|
-----------------------------|------------------------------|


                                                              
------------------------------|------------------------------|
---------------------------12-|------------------------------|
--11~-----11-13-14~-----14----|--14~-----13-11-13~-----14-13-|
------------------------------|------------------------------|
------------------------------|------------------------------|
------------------------------|------------------------------|


                                                             
-----------------------------|------------------------------|
---------------15~-----15-14-|--14~-----15-14-12------------|
--11~-----14-x---------------|------------------------12-11-|
-----------------------------|------------------------------|
-----------------------------|------------------------------|
-----------------------------|------------------------------|


                                                           
----------------------------|-----------------------------|
-------------------------10-|-----------------------------|
--9~-----9-11-12~-----12----|--12~-----11-9-11~-----12-11-|
----------------------------|-----------------------------|
----------------------------|-----------------------------|
----------------------------|-----------------------------|


                                                      
----------------------------|------------------------|
--------------13~-----13-12-|--12~-------------------|
--9~-----12-x---------------|------------------------|
----------------------------|------------9--7--5--4--|
----------------------------|------------7--5--3--2--|
----------------------------|------------------------|


                                                                    
--7-0--0-8-0--0-7-0--0-5-0--0-|--7-0--0-8-0-5-7-5-0-0/12~-12/--17/-|
------------------------------|------------------------------------|
------------------------------|------------------------------------|
------------------------------|------------------------------------|
------------------------------|------------------------------------|
------------------------------|------------------------------------|


                                                                
--7-0--0-8-0--0-7-0--0-5-0--0-|--7-0--0-8-0--0-7---------------|
------------------------------|------------------7-7-----------|
------------------------------|----------------------7-7-------|
------------------------------|--------------------------7-7---|
------------------------------|------------------------------7-|
------------------------------|--------------------------------|


                                                              
--7-0--0-8-0--0-7-0--0-5-0--0-|--7-0--0-8-0--0-7-0--0-5-0--0-|
------------------------------|------------------------------|
------------------------------|------------------------------|
------------------------------|------------------------------|
------------------------------|------------------------------|
------------------------------|------------------------------|


                                                             
--7-0--0-8-0--0-7-0--0-5-0--0-|--7-0--0-x-5-5-5-------------|
------------------------------|---------x-------------------|
------------------------------|-----------------------------|
------------------------------|-----------------9--7--5--4--|
------------------------------|-----------------7--5--3--2--|
------------------------------|-----------------------------|


                                                                      
--7-----7-8-----8-7---8-7-5-----5-|--7-----7-5-----5-----------------|
----5-8-----5-8-----5-------5-8---|----5-8-----5-8-----8---7---5---4-|
----------------------------------|------------------9---7---5---4---|
----------------------------------|----------------------------------|
----------------------------------|----------------------------------|
----------------------------------|----------------------------------|


                                                                      
--7-----7-8-----8-7---8-7-5-----5-|--7-----7-5-----5-----------------|
----5-8-----5-8-----5-------5-8---|----5-8-----5-8-----8---7---5---4-|
----------------------------------|------------------9---7---5---4---|
----------------------------------|----------------------------------|
----------------------------------|----------------------------------|
----------------------------------|----------------------------------|


                                                                      
--7-----7-8-----8-7---8-7-5-----5-|--7-----7-5-----5-----------------|
----5-8-----5-8-----5-------5-8---|----5-8-----5-8-----8---7---5---4-|
----------------------------------|------------------9---7---5---4---|
----------------------------------|----------------------------------|
----------------------------------|----------------------------------|
----------------------------------|----------------------------------|


                                                                      
--7-----7-8-----8-7---8-7-5-----5-|--7-----7-5-----5-----------------|
----5-8-----5-8-----5-------5-8---|----5-8-----5-8-----8---7---5---4-|
----------------------------------|------------------9---7---5---4---|
----------------------------------|----------------------------------|
----------------------------------|----------------------------------|
----------------------------------|----------------------------------|


                                                                             
---------------------11/-|--12----------------|--------------|--------------|
--------5---5-4----------|--------------------|--------------|--------------|
----5-----5--------------|--------------------|--------------|--------------|
-------------------------|--------------------|--------------|--------------|
-------------------------|--------------------|--------------|--------------|
-------------------------|--------------------|--------------|--------------|


                                                                                
--------------------|-------------------|------------------|-------------------|
--------------------|-------------------|------------------|-------------------|
--------------------|--9----------------|------------------|--5----------------|
----------------9-9-|--9----------------|------------------|--5----------------|
----------------7-7-|--7----------------|------------------|--3----------------|
----------------0-0-|--0----------------|------------------|-------------------|


                                                     
--------------------|-------------------------------|
--------------------|-------------------------------|
-----------4--------|-------------------------------|
--5--------4--------|---------2---------------------|
--5--------2--------|--2------0--0-0-2------0-3-2-0-|
--3-----------------|--0--0-0--------0--0-0---------|


                               
------------------------------|
------------------------------|
--4---------------------------|
----4-4-4--5-5-5--4-4-4-------|
----2-2-2--6-6-6--2-2-2-5--5--|
------------------------3--2--|


                                                        
-------------------------------------------12-12-------|
----0-0-12-12---13-13-13-13-12-12-------12-------15-13-|
--0-----------0-------------------12-14----------------|
-------------------------------------------------------|
-------------------------------------------------------|
-------------------------------------------------------|


                                                        
-------------------------------------------------------|
--12-12-12---------------------------------------------|
-----------14-12-14-14-14-12-11----------12-14-16--14--|
--------------------------------14-14-14---------------|
-------------------------------------------------------|
-------------------------------------------------------|


                                                          
---------------------------------------------12-12-------|
--0-0-12-12-12-0-0-13-13-0-12-12-------12-13-------15-13-|
---------------------------------12-14-------------------|
---------------------------------------------------------|
---------------------------------------------------------|
---------------------------------------------------------|


                                                        
-------------------------------------------------------|
--12-12-12---------------------------------------------|
-----------14-12-14-14-14-12-11----------11-12/16--14--|
--------------------------------14-14-14---------------|
-------------------------------------------------------|
-------------------------------------------------------|


                                                                
---------------------------------------------12-12-12----------|
----12-12-12-12---13-13-13-13-12-12-------12----------15-15-13-|
--0-------------0-------------------12-14----------------------|
---------------------------------------------------------------|
---------------------------------------------------------------|
---------------------------------------------------------------|


                                                           
----------------------------------------------------------|
--12-12-12------------------------------------------------|
-----------14-12-14-14-14-12-11-------------12-14-16--14--|
--------------------------------14-14-14-14---------------|
----------------------------------------------------------|
----------------------------------------------------------|


                                                                
---------------------------------------------12-12-12----------|
----12-12-12-12---13-13-13-13-12-12-------12----------15-15-13-|
--0-------------0-------------------12-14----------------------|
---------------------------------------------------------------|
---------------------------------------------------------------|
---------------------------------------------------------------|


                                                                              
------------------------------------------------------|----------------------|
--12-12-12--------------------------------------------|----------------------|
-----------14-12-14-14-14-12-11----------12-14/16--x--|----------------------|
--------------------------------14-14-14-----------x--|--5-5-----------------|
------------------------------------------------------|--3-3-------2-2-------|
------------------------------------------------------|------------0-0-------|


                                                   
--------------------------------|-----------------|
--------------------------------|-----------------|
-------------------9--8---------|------------9~---|
--3-3--------------------10--9--|---------9-------|
--1-1-------7--10---------------|--7--10----------|
--------------------------------|-----------------|


                                                                      
--7-----7-8-----8-7---8-7-5-----5-|--7-----7-5-----5-----------------|
----5-8-----5-8-----5-------5-8---|----5-8-----5-8-----8---7---5---4-|
----------------------------------|------------------9---7---5---4---|
----------------------------------|----------------------------------|
----------------------------------|----------------------------------|
----------------------------------|----------------------------------|


                                                       
--7-----7-8-----x-0h7p0-20-19-17-20-19-17-------------|
----5-8-----5-8---------------------------20-19-17-16-|
------------------------------------------------------|
------------------------------------------------------|
------------------------------------------------------|
------------------------------------------------------|


                                                             
------------------------------------------------------------|
--20-19-17-20-19-17-16----------------------------15~-------|
-----------------------17-16-14----14-16-17-16-14-----------|
--------------------------------17--------------------------|
------------------------------------------------------------|
------------------------------------------------------------|


                                                                      
--7-----7-8-----8-7---8-7-5-----5-|--7-----7-5-----5-----------------|
----5-8-----5-8-----5-------5-8---|----5-8-----5-8-----8---7---5---4-|
----------------------------------|------------------9---7---5---4---|
----------------------------------|----------------------------------|
----------------------------------|----------------------------------|
----------------------------------|----------------------------------|


                                                                      
--7-----7-8-----8-7---8-7-5-----5-|--7-----7-5-----5-----------------|
----5-8-----5-8-----5-------5-8---|----5-8-----5-8-----8---7---5---4-|
----------------------------------|------------------9---7---5---4---|
----------------------------------|----------------------------------|
----------------------------------|----------------------------------|
----------------------------------|----------------------------------|


                                                      
------------------------6--|--7----------------------|
---------------------8-----|-----8-------------------|
------------------7--------|-------9-9---------------|
------------9--8-----------|-------------------------|
--7--9--10-----------------|-------------------------|
---------------------------|----------------0/---12/-|


                                                              
------------------------6--|--7------------------------------|
---------------------8-----|-----8---------8---------8-------|
------------------7--------|-------9---------9-----------9-x-|
------------9--8-----------|---------9-5-------9-5-9---9---x-|
--7--9--10-----------------|-------------7-------------------|
---------------------------|---------------------------------|


                                                                         
------------------------6--|--7------7------------|---------------------|
---------------------8-----|-----8----------------|---------------------|
------------------7--------|-------9--------------|---------------------|
------------9--8-----------|----------------------|---------------------|
--7--9--10-----------------|----------------------|--7--------10--------|
---------------------------|----------------------|---------------------|


                                                                            
----------------------------|---------------------|------------------------|
----------------------------|---------------------|------------------------|
----------------------------|---------------------|------------------------|
--9------5--4---------5--4--|---------------------|--9------5--4-----------|
--7------3--2--2------3--2--|--7--------10--------|--7------3--2--2--------|
-----0-0-------0--0-0-------|---------------------|-----0-0-------0--------|


                                                                            
-------------------------|---------------------|---------------------------|
-------------------------|---------------------|---------------------------|
-------------------------|---------------------|---------------------------|
-----------7------9------|----------5------7---|--5----------8-----------5-|
--2--------5--5-5-7--7-2-|----------3---2--5---|--3------3-3-6--6-6-8----3-|
--0--------------------0-|--------------0------|--------------------6--x---|


                                               
--------------------|-------------------------|
--------------------|-------------------------|
--------------------|-------------------------|
--------------------|-----------7------9------|
--------------------|--2--------5--5-5-7--7-7-|
------------12/-----|--0----------------------|


                                   
----------------------------------|
----------------15----------------|
-------------12----12-------14----|
----------10-------------12----12-|
----------------------10----------|
----------------------------------|


                                                        
-------------------------------------------12-12-------|
----0-0-12-12---13-13-13-13-12-12-------12-------15-13-|
--0-----------0-------------------12-14----------------|
-------------------------------------------------------|
-------------------------------------------------------|
-------------------------------------------------------|


                                                        
-------------------------------------------------------|
--12-12-12---------------------------------------------|
-----------14-12-14-14-14-12-11----------12-14-16--14--|
--------------------------------14-14-14---------------|
-------------------------------------------------------|
-------------------------------------------------------|


                                                          
---------------------------------------------12-12-------|
--0-0-12-12-12-0-0-13-13-0-12-12-------12-13-------15-13-|
---------------------------------12-14-------------------|
---------------------------------------------------------|
---------------------------------------------------------|
---------------------------------------------------------|


                                     
------------------------------------|
--12--------------------------------|
------14--12--11----------12--------|
------------------14--13------------|
------------------------------------|
------------------------------------|


                                                       
------------------------------------------------------|
--15--15----17-17-17/12-12-12-12-12-15/10-10-10-12-8--|
--14r-14b---------------------------------------------|
------------------------------------------------------|
------------------------------------------------------|
------------------------------------------------------|


                                           
-----------------15~----------------------|
--------------17-----19-17-15-17----------|
-----------16-----------------------------|
--------17--------------------------------|
--19-19-------------------------------19--|
------------------------------------------|


                                                                              
--------------15-17-19-17-15-------------15--19-17-15-19-17-15---------------|
-----------17----------------19-17-15-19-----------------------19-17-15-15b--|
--------16-------------------------------------------------------------------|
-----17----------------------------------------------------------------------|
--19-------------------------------------------------------------------------|
-----------------------------------------------------------------------------|


                                                              
-------------------------------------|-----------------------|
------15r-12-15-12-15--12------------|-----------------------|
---------------------------14--12----|----7r--------14---12--|
-------------------------------------|-----------------------|
-------------------------------------|-----------------------|
-------------------------------------|-----------------------|


                                           
-----15b-15-12----------12----------------|
---------------15----12----15-12----------|
------------------14b------------14-14r12-|
------------------------------------------|
------------------------------------------|
------------------------------------------|


                                                                 
----------------------------------------------------------------|
----------------------------------------------------------------|
----------------------------------------------------------------|
--14-14-14-15-14-15-14-14-14-15-14-15-14-15-14-15-14-15-17------|
------------------------------------------------------------17--|
----------------------------------------------------------------|


                                                                        
--------------15----19-15/12-15-12----------19~---12h15p12----------12-|
-----------17----17----------------15-12-15----------------15-12-15----|
--------16-------------------------------------------------------------|
-----17----------------------------------------------------------------|
--19-------------------------------------------------------------------|
-----------------------------------------------------------------------|


                                                                                
------12-12----12-12-12-15-12-14-15-14-12----------------12---------------------
--15b-------15b---------------------------15-13-12-13-15----15-13-12------------
---------------------------------------------------------------------14-12-11-12
--------------------------------------------------------------------------------
--------------------------------------------------------------------------------
--------------------------------------------------------------------------------


                               
------------12-15-15b----0----|
---------15-------------------|
-----14b-------------------0--|
------------------------------|
------------------------------|
------------------------------|


                                                           
---------------------7-8-10-------------------12--14--15--|
--------------7-8-10-----------------12-13-15-------------|
--------5-7-9---------------11-12-14----------------------|
--5-7-9---------------------------------------------------|
----------------------------------------------------------|
----------------------------------------------------------|


                                                                                
---------------17-20-19-17----19-17----------------17-20-19-17----19-17---------
--19--17-19-20-------------20-------20-19-17-19-20-------------20-------20-19-17
--------------------------------------------------------------------------------
--------------------------------------------------------------------------------
--------------------------------------------------------------------------------
--------------------------------------------------------------------------------


                                                                          
--20-19-17----------19-17-15-14-12---------------------------------------|
-----------20-19-17----------------15-13-12------------------------------|
--------------------------------------------14-12-11---------------------|
-----------------------------------------------------14-12-10------------|
--------------------------------------------------------------14-12-10-9-|
-------------------------------------------------------------------------|


                                      
----------------14-15-17-15-17-15-14-|
--17---------17----------------------|
-------------------------------------|
-------------------------------------|
-------------------------------------|
-------------------------------------|


                                                                   
--------------------------------------------|---------------------|
--13--15-13-12---12-------------------------|---------------------|
--------------------14-12-11-------11-------|---------------------|
-----------------------------14-13----14-13-|--14-----------------|
--------------------------------------------|---------------------|
--------------------------------------------|----------------0----|


                                                               
--------------15----------------15h19p15----------22~-----12/-|
-----------17----17----------17----------17----17---------12/-|
--------16----------16----16----------------16----------------|
-----17----------------17-------------------------------------|
--19----------------------------------------------------------|
--------------------------------------------------------------|


                                                                                
--12p--0-12-14p12p11-14t12p11h12-15t12p11h12-17t12p11h12-19t12p11h12-20t12p11h12
--------------------------------------------------------------------------------
--------------------------------------------------------------------------------
--------------------------------------------------------------------------------
--------------------------------------------------------------------------------
--------------------------------------------------------------------------------


                                                                                
--20t12-19t12-17t12-15t12-14t12-20t12-17t12-15t12-14t12-20t12-17t12-15t12-14t11-
--------------------------------------------------------------------------------
--------------------------------------------------------------------------------
--------------------------------------------------------------------------------
--------------------------------------------------------------------------------
--------------------------------------------------------------------------------


                                                     
--12~-------24--------|-----------------------------|
----------------------|-----------------------------|
----------------------|-----------------------------|
----------------------|---4-4-4--5-5-5--4-4-4-------|
----------------------|---2-2-2--6-6-6--2-2-2-5--5--|
----------------------|-----------------------3--2--|


                                                        
-------------------------------------------12-12-------|
----0-0-12-12---13-13-13-13-12-12-------12-------15-13-|
--0-----------0-------------------12-14----------------|
-------------------------------------------------------|
-------------------------------------------------------|
-------------------------------------------------------|


                                                        
-------------------------------------------------------|
--12-12-12---------------------------------------------|
-----------14-12-14-14-14-12-11----------12-14-16--14--|
--------------------------------14-14-14---------------|
-------------------------------------------------------|
-------------------------------------------------------|


                                                          
---------------------------------------------12-12-------|
--0-0-12-12-12-0-0-13-13-0-12-12-------12-13-------15-13-|
---------------------------------12-14-------------------|
---------------------------------------------------------|
---------------------------------------------------------|
---------------------------------------------------------|


                                                        
-------------------------------------------------------|
--12-12-12---------------------------------------------|
-----------14-12-14-14-14-12-11----------11-12/16--14--|
--------------------------------14-14-14---------------|
-------------------------------------------------------|
-------------------------------------------------------|


                                                                
---------------------------------------------12-12-12----------|
----12-12-12-12---13-13-13-13-12-12-------12----------15-15-13-|
--0-------------0-------------------12-14----------------------|
---------------------------------------------------------------|
---------------------------------------------------------------|
---------------------------------------------------------------|


                                                           
----------------------------------------------------------|
--12-12-12------------------------------------------------|
-----------14-12-14-14-14-12-11-------------12-14-16--14--|
--------------------------------14-14-14-14---------------|
----------------------------------------------------------|
----------------------------------------------------------|


                                                      
-----------------------------------------------------|
--0-12-12-12-12-0-13-13-13-13-------------12-13--12--|
------------------------------------12-14------------|
------------------------------14-14------------------|
-----------------------------------------------------|
-----------------------------------------------------|


                                                                         
-----------------------------------|------------------------|----------||
-----------------------------------|------------------------|----------||
---12-12-12--11-11-11--------------|----------4-4-4---------|----------||
--------------------------------7--|----------2-2-2---------|----------||
---10-10-10--9--9--9---2-2-2-5--5--|---2-2-2--2-2-2---------|----------||
-----------------------0-0-0-3-----|---0-0-0--0-0-0---------|----------||
comments
We did not receive enough feedback on this tab! Please rate:
print report bad tab
1 2 3 4 5
2 comments total.
0 reply
zjmellet wrote on March 27 2008, 07:40 pm

whats the tuning?

0 reply
guitar_jedi wrote on June 3 2008, 05:16 pm

for those wanting to know the tuning to this song its

D#G#C#F#A#D#

I want to post or [tab]
guest
You may want to rate the tab now too:
select rating
Please do not post tabs as comments. Select "correction" instead!