Oops, an error
Loading. Please wait.

Towards Dead End Bass Tab

ver1
ver1

Whole song

More versions @911Tabs.com
733 views 1 this week
no commentswrite comment
1 2 3 4 5
accurate
x 1
Autoscroll
+/-
esc
set tempo
stop
Contributor
Hey! There's an official Ultimate Guitar app which is ideal
for learning songs when you're away from computer. Get the app
WARNING: You are trying to view
                                    content from Ultimate-Guitar.com
                                    in an unauthorized application,
                                    which is prohibited.

                                    Please use an official Ultimate
                                    Guitar Tabs application for iPhone,
                                    iPad or Android to access legitimate
                                    chords, guitar, bass, and drum tabs
                                    from Ultimate-Guitar.com database.

                                    Type "ultimate guitar tabs" in Apple
                                    App Store's or Android Market's
                                    search to find the application.
Children of Bodom - Towards Dead End

Tuning (D G C F)


F||------------------|----------------------------|-------------------------|
C||------------------|--0----0-0-0-0-0----0-0-0-0-|--0----0-0-0-0-0----0----|
G||------------------|----------------------------|-------------------------|
D||------------------|----------------------------|-------------------------|


                                                       
----------------------------|-------------------------|
--3----3-3-3-3-3----3-3-3-3-|--3----3-3-3-3-3----3----|
----------------------------|-------------------------|
----------------------------|-------------------------|


                                                                              
--------------------------------------|--------------------------------------|
--------------------------------------|--------------------------------------|
--3--3--3--3--3--3--3--3--3--3--3--3--|--3--3--3--3--3--3--3--3--3--3--3--3--|
--------------------------------------|--------------------------------------|


                                                                              
--------------------------------------|--------------------------------------|
--------------------------------------|--------------------------------------|
--------------------------------------|--------------------------------------|
--3--3--3--3--3--3--3--3--3--3--3--3--|--3--3--3--3--3--3--3--3--3--3--3--3--|


                                                    
-------------------------|-------------------------|
---------------1----3----|---------------0----3----|
-------------------------|--1----1-1-1-1-----------|
--4----4-4-4-4-----------|-------------------------|


                                                          
----------------------------|----------------------------|
----------------------------|----------------------------|
----------------------------|--3----3-3-3-3-3----3-3-3-3-|
--4----4-4-4-4-4----4-4-4-4-|----------------------------|


                                                    
-------------------------|-------------------------|
---------------1----3----|---------------0----3----|
-------------------------|--1----1-1-1-1-----------|
--4----4-4-4-4-----------|-------------------------|


                                                          
----------------------------|----------------------------|
----------------------------|----------------------------|
----------------------------|----------------------------|
--3----3-3-3-3-3----3-3-3-3-|--3----3-3-3-3-3----3-3-3-3-|


                                                       
----------------------------|-------------------------|
--0----0-0-0-0-0----0-0-0-0-|--0----0-0-0-0-0----0----|
----------------------------|-------------------------|
----------------------------|-------------------------|


                                                       
----------------------------|-------------------------|
--3----3-3-3-3-3----3-3-3-3-|--3----3-3-3-3-3----3----|
----------------------------|-------------------------|
----------------------------|-------------------------|


                                                                              
--------------------------------------|--------------------------------------|
--------------------------------------|--------------------------------------|
--3--3--3--3--3--3--3--3--3--3--3--3--|--3--3--3--3--3--3--3--3--3--3--3--3--|
--------------------------------------|--------------------------------------|


                                                                              
--------------------------------------|--------------------------------------|
--------------------------------------|--------------------------------------|
--------------------------------------|--------------------------------------|
--3--3--3--3--3--3--3--3--3--3--3--3--|--3--3--3--3--3--3--3--3--3--3--3--3--|


                                                                              
-------------------------|-------------------------|-------------------------|
---------------1----3----|---------------0----3----|---------------1----3----|
-------------------------|--1----1-1-1-1-----------|-------------------------|
--4----4-4-4-4-----------|-------------------------|--4----4-4-4-4-----------|


                                                    
----------------------|----------------------------|
--1----0--------------|----------------------------|
------------3----1----|----------------------------|
----------------------|--4----4-4-4-4-4----4-4-4-4-|


                                                          
----------------------------|----------------------------|
----------------------------|----------------------------|
--1----1-1-1-1-1----1-1-1-1-|----------------------------|
----------------------------|--3----3-3-3-3-3----3-3-3-3-|


                                                          
----------------------------|----------------------------|
----------------------------|----------------------------|
----------------------------|----------------------------|
--3----3-3-3-3-3----3-3-3-3-|--3----3-3-3-3-3----3-3-3-3-|


                                                                    
----------------------------|-------------------|------------------|
----------------------------|-------------------|------------------|
----------------------------|--3----------------|------------------|
--3----3-3-3-3-3----3-3-3-3-|--x----------------|------------------|


                                                                   
------------------|------------------||---------------------------|
------------------|------------------||*--------------------------|
------------------|------------------||*--3--3--3--3--3--3--3--3--|
------------------|------------------||---------------------------|


                                                                               
--------------------------|------------------------|-------------------------||
--------------------------|------------------------|--1--1--1---------------*||
--------------1--1--1--1--|--3--3--3---------------|-------------1--1--1----*||
--4--4--4--4--------------|-------------3--3--3----|-------------------------||


                                                                             
------------------------|--------------------------|------------------------|
*--0----0--0----0--0----|--------------------------|--0--0--0---------------|
*-----------------------|--1--1--1--1--3--3--3--3--|-------------0--0--0----|
------------------------|--------------------------|------------------------|


                                                                              
-------------------------||-----------------------|--------------------------|
--3--3--3---------------*||--0----0--0----0--0----|--------------------------|
-------------3--3--3----*||-----------------------|--1--1--1--1--3--3--3--3--|
-------------------------||-----------------------|--------------------------|


                                                                          
------------------------|------------------------|-----------------------|
--0--0--0---------------|--3--3--3---------------|--0----0--0----0--0----|
-------------0--0--0----|-------------3--3--3----|-----------------------|
------------------------|------------------------|-----------------------|


                                                                              
--------------------------|--------2--7--10/-9--7-----|----------------------|
--------------------------|--0h-3------------------7/-|------------0---------|
--1--1--1--1--3--3--3--3--|---------------------------|--8----7---------3----|
--------------------------|---------------------------|----------------------|


                                                                       
|-----------------------|----------------------|----------------------|
|*----------------------|----------------------|----------------------|
|*--1----1----1----1----|----------------------|--1----1----3----4----|
|-----------------------|--3----3----3----3----|----------------------|


                                                                     
----------------------|----------------------|----------------------|
--0-------------------|----------------------|------------0----2----|
-------3----0---------|-----------------0----|--3----3--------------|
-----------------3----|--1----1----3---------|----------------------|


                                                                         
----------------------|--------------------------|----------------------|
--0------0--0------0--|--0------0----------------|----------------------|
----------------------|--------------------------|--1----1----1----1----|
----------------------|------------1----1--------|----------------------|


                                                                     
----------------------|----------------------|----------------------|
----------------------|----------------------|--0-------------------|
----------------------|--1----1----3----4----|-------3----0---------|
--3----3----3----3----|----------------------|-----------------3----|


                                              
----------------------|----------------------|
----------------------|------------0----2----|
-----------------0----|--3----3--------------|
--1----1----3---------|----------------------|


                                                                      
----------------------------------|----------------------------------|
--0-0-0-0-0-0-0-0-----------------|--0-0-0-0-0-0-0-0-----------------|
------------------3-3-3-3-3-3-3-3-|------------------1-1-1-1-1-1-1-1-|
----------------------------------|----------------------------------|


                                                                              
-------------------|------------------|--------------------------------------|
--0----------------|------------------|--------------------------------------|
-------------------|------------------|--1--1--1--1--1--1--1--1--1--1--1--1--|
-------------------|------------------|--------------------------------------|


                                                                              
--------------------------------------|--------------------------------------|
--------------------------------------|--------------------------------------|
--------------------------------------|--0--0--0--0--0--0--0--0--0--0--0--0--|
--1--1--1--1--1--1--1--1--1--1--1--1--|--------------------------------------|


                                                                  
--------------------------|--------------------------------------|
--------------------------|--------------------------------------|
--------------------------|--------------------------------------|
--------------------------|--1--1--1--1--1--1--1--1--1--1--1--1--|


                                                                              
--------------------------------------|--------------------------------------|
--------------------------------------|--0--0--0--0--0--0--0--0--0--0--0--0--|
--3--3--3--3--3--3--3--3--3--3--3--3--|--------------------------------------|
--------------------------------------|--------------------------------------|


                                                                          
-----------3--2--0----------------|--------------------------------------|
--3--2--0-----------3--2--0-------|--------------------------------------|
-----------------------------3----|--1--1--1--1--1--1--1--1--1--1--1--1--|
----------------------------------|--------------------------------------|


                                                                              
--------------------------------------|--------------------------------------|
--------------------------------------|--------------------------------------|
--------------------------------------|--0--0--0--0--0--0--0--0--0--0--0--0--|
--1--1--1--1--1--1--1--1--1--1--1--1--|--------------------------------------|


                                                                     
-----------------------------|--------------------------------------|
-----------------------------|--------------------------------------|
-----------------------------|--------------------------------------|
--------------------0--0--0--|--1--1--1--1--1--1--3--3--3--1--1--1--|


                                                                           
--------------------------------|--------------------|--------------------|
--------------------------------|--0-----------------|--------------------|
--------------------------------|-----------3--------|--1--------0--------|
--0--0--0--0--0--0--------------|--------------------|--------------------|


                                                                      
--------------------|-------------------|----------------------------|
--------------------|-------------------|--0----0-0-0-0-0----0-0-0-0-|
--------------------|--0----------------|----------------------------|
--3--------4--------|-------------------|----------------------------|


                                                       
-------------------------|----------------------------|
--0----0-0-0-0-0----0----|--3----3-3-3-3-3----3-3-3-3-|
-------------------------|----------------------------|
-------------------------|----------------------------|


                                                                 
-------------------------|--------------------------------------|
--3----3-3-3-3-3----3----|--------------------------------------|
-------------------------|--3--3--3--3--3--3--3--3--3--3--3--3--|
-------------------------|--------------------------------------|


                                                                              
--------------------------------------|--------------------------------------|
--------------------------------------|--------------------------------------|
--3--3--3--3--3--3--3--3--3--3--3--3--|--------------------------------------|
--------------------------------------|--3--3--3--3--3--3--3--3--3--3--3--3--|


                                                                 
--------------------------------------|-------------------------|
--------------------------------------|---------------1----3----|
--------------------------------------|-------------------------|
--3--3--3--3--3--3--3--3--3--3--3--3--|--4----4-4-4-4-----------|


                                                       
-------------------------|----------------------------|
---------------0----3----|----------------------------|
--1----1-1-1-1-----------|----------------------------|
-------------------------|--4----4-4-4-4-4----4-4-4-4-|


                                                       
----------------------------|-------------------------|
----------------------------|---------------1----3----|
--3----3-3-3-3-3----3-3-3-3-|-------------------------|
----------------------------|--4----4-4-4-4-----------|


                                                       
-------------------------|----------------------------|
---------------0----3----|----------------------------|
--1----1-1-1-1-----------|----------------------------|
-------------------------|--3----3-3-3-3-3----3-3-3-3-|


                                                          
----------------------------|----------------------------|
----------------------------|--0----0-0-0-0-0----0-0-0-0-|
----------------------------|----------------------------|
--3----3-3-3-3-3----3-3-3-3-|----------------------------|


                                                       
-------------------------|----------------------------|
--0----0-0-0-0-0----0----|--3----3-3-3-3-3----3-3-3-3-|
-------------------------|----------------------------|
-------------------------|----------------------------|


                                                                 
-------------------------|--------------------------------------|
--3----3-3-3-3-3----3----|--------------------------------------|
-------------------------|--3--3--3--3--3--3--3--3--3--3--3--3--|
-------------------------|--------------------------------------|


                                                                              
--------------------------------------|--------------------------------------|
--------------------------------------|--------------------------------------|
--3--3--3--3--3--3--3--3--3--3--3--3--|--------------------------------------|
--------------------------------------|--3--3--3--3--3--3--3--3--3--3--3--3--|


                                                                 
--------------------------------------|-------------------------|
--------------------------------------|---------------1----3----|
--------------------------------------|-------------------------|
--3--3--3--3--3--3--3--3--3--3--3--3--|--4----4-4-4-4-----------|


                                                                           
-------------------------|-------------------------|----------------------|
---------------0----3----|---------------1----3----|--1----0--------------|
--1----1-1-1-1-----------|-------------------------|------------3----1----|
-------------------------|--4----4-4-4-4-----------|----------------------|


                                                          
----------------------------|----------------------------|
----------------------------|----------------------------|
----------------------------|--1----1-1-1-1-1----1-1-1-1-|
--4----4-4-4-4-4----4-4-4-4-|----------------------------|


                                                                                
----------------------------|----------------------------|---------------------|
----------------------------|----------------------------|---------------------|
----------------------------|----------------------------|--3------3------1----|
--3----3-3-3-3-3----3-3-3-3-|--3----3-3-3-3-3----3-3-3-3-|---------------------|


                                                                              
---------------------||---------------------------|--------------------------|
-----------1---------||*--------------------------|--------------------------|
----1-----------1----||*--3--3--3--3--3--3--3--3--|--------------1--1--1--1--|
---------------------||---------------------------|--4--4--4--4--------------|


                                                                             
------------------------|-------------------------||------------------------|
------------------------|--1--1--1---------------*||*--0----0--0----0--0----|
--3--3--3---------------|-------------1--1--1----*||*-----------------------|
-------------3--3--3----|-------------------------||------------------------|


                                                                               
--------------------------|------------------------|-------------------------||
--------------------------|--0--0--0---------------|--3--3--3---------------*||
--1--1--1--1--3--3--3--3--|-------------0--0--0----|-------------3--3--3----*||
--------------------------|------------------------|-------------------------||


                                                                            
------------------|------------------|------------------|------------------|
------------------|------------------|------------------|------------------|
------------------|------------------|------------------|------------------|
------------------|------------------|------------------|------------------|


                                                                             
------------------|------------------|------------------|-------------------|
------------------|------------------|------------------|----------0/-------|
------------------|------------------|------------------|-------------------|
------------------|------------------|------------------|-------------------|


                                                                   
--------------------|------------------------|--------------------|
--------------------|------------------------|--------------------|
--------------1--1--|--1--1------3--3--3--3--|--------------0--0--|
--------------------|------------------------|--------------------|


                                                                     
----------------------|--------------------|------------------------|
----------------------|--------------------|------------------------|
--0--0-----------3----|--------------1--1--|--1--1------3--3--3--3--|
------------1---------|--------------------|------------------------|


                                                              
--------------------|---------------------|------------------|
--------------------|---------------------|------------------|
--------------0--0--|--0/-----------------|------------------|
--------------------|-------1----0--------|------------------|


                                                                             
------------------|------------------|------------------|-------------------|
------------------|------------------|------------------|-------------------|
------------------|------------------|------------------|--------------1----|
------------------|------------------|------------------|-------------------|


                                                                  
-------------------|----------------------|----------------------|
-------------------|----------------------|----------------------|
----------3--------|--1----1----2----2----|--3----3----4----4----|
-------------------|----------------------|----------------------|


                                                                  
-----------------------|------------------|----------------------|
--0--0----0---------0--|------------------|----------------------|
---------------3-------|------------------|--1----1----1----1----|
-----------------------|------------------|----------------------|


                                                                     
----------------------|----------------------|----------------------|
----------------------|----------------------|--0-------------------|
----------------------|--1----1----3----4----|-------3----0---------|
--3----3----3----3----|----------------------|-----------------3----|


                                                                     
----------------------|----------------------|----------------------|
----------------------|------------0----2----|--0------0--0------0--|
-----------------0----|--3----3--------------|----------------------|
--1----1----3---------|----------------------|----------------------|


                                                                         
--------------------------|----------------------|----------------------|
--0------0----------------|----------------------|----------------------|
--------------------------|--1----1----1----1----|----------------------|
------------1----1--------|----------------------|--3----3----3----3----|


                                                                     
----------------------|----------------------|----------------------|
----------------------|--0-------------------|----------------------|
--1----1----3----4----|-------3----0---------|-----------------0----|
----------------------|-----------------3----|--1----1----3---------|


                                                          
----------------------|----------------------------------|
------------0----2----|--0-0-0-0-0-0-0-0-----------------|
--3----3--------------|------------------3-3-3-3-3-3-3-3-|
----------------------|----------------------------------|


                                                                          
----------------------------------|-------------------|------------------|
--0-0-0-0-0-0-0-0-----------------|--0----------------|------------------|
------------------1-1-1-1-1-1-1-1-|-------------------|------------------|
----------------------------------|-------------------|------------------|


                                                                              
--------------------------------------|--------------------------------------|
--------------------------------------|--------------------------------------|
--1--1--1--1--1--1--1--1--1--1--1--1--|--------------------------------------|
--------------------------------------|--1--1--1--1--1--1--1--1--1--1--1--1--|


                                                                  
--------------------------------------|--------------------------|
--------------------------------------|--------------------------|
--0--0--0--0--0--0--0--0--0--0--0--0--|--------------------------|
--------------------------------------|--------------------------|


                                                                              
--------------------------------------|--------------------------------------|
--------------------------------------|--------------------------------------|
--------------------------------------|--3--3--3--3--3--3--3--3--3--3--3--3--|
--1--1--1--1--1--1--1--1--1--1--1--1--|--------------------------------------|


                                              
----------------------|----------------------|
--0------0--0------0--|--0------0--0----0----|
----------------------|----------------------|
----------------------|----------------------|


                                                                              
--------------------------------------|--------------------------------------|
--------------------------------------|--------------------------------------|
--1--1--1--1--1--1--1--1--1--1--1--1--|--------------------------------------|
--------------------------------------|--1--1--1--1--1--1--1--1--1--1--1--1--|


                                                                     
--------------------------------------|-----------------------------|
--------------------------------------|-----------------------------|
--0--0--0--0--0--0--0--0--0--0--0--0--|-----------------------------|
--------------------------------------|--------------------0--0--0--|


                                                                        
--------------------------------------|--------------------------------|
--------------------------------------|--------------------------------|
--------------------------------------|--------------------------------|
--1--1--1--1--1--1--3--3--3--1--1--1--|--0--0--0--0--0--0--------------|


                                                               
--------------------|--------------------|--------------------|
--0-----------------|--------------------|--------------------|
-----------3--------|--1--------0--------|--------------------|
--------------------|--------------------|--3--------4--------|


                                                                  
---------------------------|------------------|------------------|
---------------------------|------------------|------------------|
--0------------------------|------------------|------------------|
---------------------------|------------------|------------------|


                                                                     
---------------------|------------------------|---------------------|
---------------------|------------------------|--0----0--------0----|
--1----1--------1----|--1------1--1--1--1--1--|---------------------|
---------------------|------------------------|---------------------|


                                                                        
------------------------|---------------------|------------------------|
--0------0--0--0--0--0--|---------------------|------------------------|
------------------------|---------------------|--4------4--4--4--4--4--|
------------------------|--1----1--------1----|------------------------|


                                                                     
---------------------|------------------------|---------------------|
--0----0--------0----|--0------0--0--0--0--0--|---------------------|
---------------------|------------------------|--1----1--------1----|
---------------------|------------------------|---------------------|


                                                                  
------------------------|-------------------|--------------------|
------------------------|-------------------|--------------------|
------------------------|-------------------|--1--------3--------|
--4------4--4--4--4--4--|----------1--------|--------------------|


                                                                               
-------------------|------------------|-------------------|-------------------|
--0----------------|------------------|-------------------|-------------------|
-------------------|------------------|--1----------------|--3----------------|
-------------------|------------------|-------------------|-------------------|


                                                                               
-------------------|------------------|-------------------|-------------------|
--0----------------|------------------|-------------------|-------------------|
-------------------|------------------|-------------------|--3----------------|
-------------------|------------------|--1----------------|-------------------|


                                                                             
-------------------|------------------|------------------|------------------|
--0----------------|------------------|------------------|------------------|
-------------------|------------------|------------------|------------------|
-------------------|------------------|------------------|------------------|


                                                                            
------------------|------------------|------------------|------------------|
------------------|------------------|------------------|------------------|
------------------|------------------|------------------|------------------|
------------------|------------------|------------------|------------------|


                                                               
------------------|------------------|------------------------|
------------------|------------------|--0----0--0----0--0--0--|
------------------|------------------|------------------------|
------------------|------------------|------------------------|


                                                                           
------------------------|------------------------|------------------------|
--0--0--0----0--0--0----|--0----0--0----0--0--0--|--0--0--0----0--0--0----|
------------------------|------------------------|------------------------|
------------------------|------------------------|------------------------|


                                                                           
------------------------|------------------------|------------------------|
--0----0--0----0--0--0--|------------------------|------------------------|
------------------------|--1--1--1----0--0--0----|------------------------|
------------------------|------------------------|--3----3--3----1--1--1--|


                                                              
---------------------|-------------------|-------------------|
---------------------|-------------------|-------------------|
---------------------|--0----------------|--------------0----|
--0--0--0------------|-------------------|-------------------|


                                                                               
-------------------|-------------------|-------------------|------------------|
--0----------------|--------------0----|-------------------|------------------|
-------------------|-------------------|--4----------------|------------------|
-------------------|-------------------|-------------------|------------------|


                                                                  
--------------------|-------------------|------------------------|
--------------------|--0----------------|------------------------|
--0--------4--------|-------------------|--0----0--0----0--0--0--|
--------------------|-------------------|------------------------|


                                                                           
------------------------|------------------------|------------------------|
------------------------|------------------------|------------------------|
--0--0--0----0--0--0----|--0----0--0----0--0--0--|--0--0--0----0--0--0----|
------------------------|------------------------|------------------------|


                                                                       
------------------------|------------------------|--------------------|
------------------------|------------------------|--------------------|
--0----0--0----0--0--0--|--0--0--0----0--0--0----|--0--------4--------|
------------------------|------------------------|--------------------|


                                                                     
-------------------|------------------------|-----------------------|
--0----------------|------------------------|-----------------------|
-------------------|--0----0--0----0--0--0--|--0--0--0----0----4----|
-------------------|------------------------|-----------------------|


                                                                         
------------------------|-----------------0----|--2----2--2----2--2--2--|
--0----0--0----0--0--0--|--0----2----3---------|------------------------|
------------------------|----------------------|------------------------|
------------------------|----------------------|------------------------|


                                                                 
--2--2--2----2--2--2----|-------------------|-------------------|
------------------------|-------------------|--0----------------|
------------------------|--0----------------|-------------------|
------------------------|-------------------|-------------------|


                                        
-------------------|------------------||
-------------------|------------------||
----------0--------|------------------||
-------------------|------------------||
comments
We did not receive enough feedback on this tab! Please rate:
print report bad tab
1 2 3 4 5
I want to post or [tab]
guest
You may want to rate the tab now too:
select rating
Please do not post tabs as comments. Select "correction" instead!