Oops, an error
Loading. Please wait.

Trashed Lost And Strungout Tab

ver2
ver2

Intro

Whole song

More versions @911Tabs.com
15,476 views 36 this week
2 commentsread comments
1 2 3 4 5
accurate
x 7
add to favorites launch autoscroll
font size
0
reset
Autoscroll
+/-
esc
set tempo
stop
Difficulty
advanced
WARNING: You are trying to view
                                    content from Ultimate-Guitar.com
                                    in an unauthorized application,
                                    which is prohibited.

                                    Please use an official Ultimate
                                    Guitar Tabs application for iPhone,
                                    iPad or Android to access legitimate
                                    chords, guitar, bass, and drum tabs
                                    from Ultimate-Guitar.com database.

                                    Type "ultimate guitar tabs" in Apple
                                    App Store's or Android Market's
                                    search to find the application.
Children of Bodom
Trashed, Lost and Strung out
Tabbed by Nate Pritchett

The Tuning should look like this : C G C F A D

Intro
|------------------------------------------------------------------|
|------------------------------------------------------------------|
|------------------------------------------------------------------|
|------------------------------------------------------------------|
|------------------------------------------------------------------|
|-0000-0-0000-0-0000-0-0-0000-0-0-0000-0-0000-0-0000-0-0-0000-12\0-|

|----------------------------|
|----------------------------|
|----------------------------|     X8
|--------8-7-------7-6-------|   
|8-5-7-8-----5-7-8-----5-7---|
|----------------------------|

Pre-Chorus
|-------------------------|-------------------------|
|----------------------14-|-------------------------|
|-14-11----13-------11----|-11-------14-13-11----13-| 4x.
|-------11----14-11-------|----11-12----------14----|
|-------------------------|-------------------------|
|-------------------------|-------------------------|

  N.H.
|------|-----------------|---------------|-----------------|---------------|
|------|-----------------|---------------|-----------------|---------------|
|------|-----------------|---------------|-----------------|---------------|
|------|-----------------|---------------|-----------------|---------------|
|------|-----------------|---------------|-3p2-2-3p2-2-3p2-|-3p2-6p5-3p2-1-|
|------|-3p2-2-3p2-2-3p2-|-3p2-6p5-3p2-1-|-3p2-2-3p2-2-3p2-|-3p2-6p5-3p2-1-|

Verse 1
|----------------|-----------------|----------------|---------------|
|----------------|-----------------|----------------|---------------|
|----------------|-------------N.H.|----------------|---------------|
|----------------|-----------------|-----7--------5-|---7-5---5-7---| 2x.
|-----0------1p0-|-----2/3---------|-----5--------3-|-x-----8-----0-|
|-0-0-0--0-0-1p0-|-0-0-2/3--0-0----|-0-0-0--0-0-0---|-------------0-|
  . .    . .       . .      . .      . .    . . .

Bridge
|-------------|-------------|-----------------|-----------------|
|-------------|-------------|-----------------|-----------------|
|-5----5----5-|---5----5--6-|-----------------|-0-0-5-0-2-2-5-2-|
|-5--x-5--x-5-|-x-5--x-5--6-|-7-7-3-3-7-7-3-3-|-----------------|
|-3--x-3--x-3-|-x-3--x-3--4-|-----------------|-----------------|
|-------------|-------------|-----------------|-----------------|
                              . . . . . . . . 

|-------------|-------------|-----------------|-----------|
|------A.H.---|-------------|-----------------|-----------|
|-5---------5-|---5----5--6-|-----------------|-----------|
|-5---------5-|---5----5--6-|-----------------|-7---------|
|-3---------3-|---3----3--4-|-5---5---4---4---|-5------x\-|
|-------------|-------------|---0---0---0---0-|--------x\-|
                                .   .   .   .

Verse 1 (2x)
Bridge 6/8 

|-----------------------------------------------------------------|
|-----------------------------------------------------------------|
|-----------------------------------------------------------------|
|---------------------------------4---4---6---6---7---7---9---9---|
|-5---5---4---4---8---8---8---7-----------------------------------|
|---0---0---0---0---0---0---0---0---0---0---0---0---0---0---0---0-|
    .   .   .   .   .   .   .   .   .   .   .   .   .   .   .   .

Interlude
|------------------------|-------------------------|------------------------|
|---------------------17-|-------------------------|---------------------17-|
|-17-14----16-------14---|-14-------17-16-14----16-|-17-14----16-------14---|
|-------14----17-14------|----14-15----------17----|-------14----17-14------|
|------------------------|-------------------------|------------------------|
|------------------------|-------------------------|------------------------|

 1.                          2.           A.H.---->
|-------------------------| |-------------17b--17b--|
|-------------------------| |-------15-17-----------|
|-14-------17-16-14----16-| |-14-17-----------------|
|----14-15----------17----| |-----------------------|
|-------------------------| |-----------------------|
|-------------------------| |-----------------------|

---Keyboard Solo---

Verse 1 (2x)

Chorus
|-----------------|-----------------|-----------------|-----------------|
|-----------------|-----------------|-----------------|-----------------|
|-----------------|-----------------|-----------------|-----------------|
|-2-2-2-2-5-5-5-5-|-----------------|-2-2-2-2---------|-----------------|
|-0-0-0-0-3-3-3-3-|-3-3-3-3-5-5-5-5-|-0-0-0-0-5-5-5-5-|-3-3-3-3-2-2-2-2-|
|-----------------|-3-3-3-3-5-5-5-5-|---------5-5-5-5-|-3-3-3-3-2-2-2-2-|

Before Guitar Solo
|-----------------|-----------------|-----------------|-----------------|
|---------------7-|-----------------|---------------7-|-----------------|
|-7-4---6-----4---|-4-----7-6-4---6-|-7-4---6-----4---|-4-----7-6-4---6-|
|-----4---7-4-----|---4-5-------7---|-----4---7-4-----|---4-5-------7---|
|-----------------|-----------------|-----------------|-----------------|
|-----------------|-----------------|-----------------|-----------------|

Guitar Solo  N.H.
|----------9b-b-b-|-----------------7-|-12-11911-12-9149-12-11911-12-9149-|
|-N.H.-0~~--------|-------------7910--|-----------------------------------|
|--7b-------------|-------468689------|-----------------------------------|
|-----------------|----467------------|-----------------------------------|
|-----------------|-467---------------|-----------------------------------|
|-----------------|-------------------|-----------------------------------|

 





  N.H.---------->
|-----------------|-242220----------------------------------------|
|-----------------|-------242220----------------------------------|
|-----------------|-------------211917----------------------------|
|-----------------|-------------------211917-------------A.H.-----|
|-----------------|-------------------------191720191715--15------|
|-----------------|------------------------------------------12\--|

|---17-------171522\-|-1513171513---------------------|
|-15--1813/15--------|---------171513-----------------|
|--------------------|---------------1210141210-------|
|--------------------|-------------------------141210-|
|--------------------|--------------------------------|
|--------------------|--------------------------------|

|-------------------------|--------------------------|
|-------1110131011--------|--------------------------|
|-101412----------12109---|-14-----------------------|
|----------------------12-|---171514171514----1514---|
|-------------------------|---------------1715----17-|
|-------------------------|--------------------------|

|---------12h15t20p15p12----------12h15t20-|-p15t20p1512h15p12\1012101210\8-|
|-------13--------------13------13---------|--------------------------------|
|-----12------------------12--12-----------|--------------------------------|
|---14----------------------14-------------|--------------------------------|
|-15---------------------------------------|--------------------------------|
|------------------------------------------|--------------------------------|

|----------------|---------171615----|
|-10---13---15---|-18----15------18\-|
|-12b--15b--17b--|---1417------------|
|----------------|-------------------|
|----------------|-------------------|
        
|----------------|-----------------|----------------|---------------|
|----------------|-----------------|----------------|---------------|
|----------------|-----------------|----------------|---------------|
|-5--6—-7--------|--7-5---5-7--7-5-|-5-7------------|---------------|
|-3--4—-5--------|------8---------8|----------------|---------------|
|----------------|-----------------|----------------|---------------|

|-------------|-------------|-----------------|-----------------|
|-------------|-------------|-----------------|-----------------|
|-5----5----5-|---5----5--6-|-----------------|-0-0-5-0-2-2-5-2-|
|-5--x-5--x-5-|-x-5--x-5--6-|-7-7-3-3-7-7-3-3-|-----------------| X3
|-3--x-3--x-3-|-x-3--x-3--4-|-----------------|-----------------|
|-------------|-------------|-----------------|-----------------|


|-----------------------------------------------------------------|
|-----------------------------------------------------------------|
|-----------------------------------------------------------------|
|-5--6--7--8------------------------------------------------------|
|-3--4--5--6------------------------------------------------------|
|-----------------------------------------------------------------|

|-----------------------------------------------------------------|
|-----------------------------------------------------------------|
|-----------------------------------------------------------------|
|-----------------------------------------------------------------|
|-5---5---4---4---8---8---8---7-----------------------------------|
|---0---0---0---0---0---0---0---0---0---0---0---0---0---0---0---0-|
|-----------------------------------------------------------------|
|-----------------------------------------------------------------|
|-----------------------------------------------------------------|
|-----------------------------5--7---7--5----7--------------------|
|-5---5---4---4-------------8------8------8-----------------------|
|---0---0---0---0---0---------------------------------------------|

|-----------------------------------------------------------------|
|-----------------------------------------------------------------|
|-----------------------------------------------------------------|
|---------------------------------4---4---6---6---7---7---9---9---|
|-5---5---4---4---8---8---8---7-----------------------------------|
|---0---0---0---0---0---0---0---0---0---0---0---0---0---0---0---0-|


Chorus
|-----------------|-----------------|-----------------|-----------------|
|-----------------|-----------------|-----------------|-----------------|
|-----------------|-----------------|-----------------|-----------------|
|-2-2-2-2-5-5-5-5-|-----------------|-2-2-2-2---------|-----------------| 
|-0-0-0-0-3-3-3-3-|-3-3-3-3-5-5-5-5-|-0-0-0-0-5-5-5-5-|-3-3-3-3-2-2-2-2-|
|-----------------|-3-3-3-3-5-5-5-5-|---------5-5-5-5-|-3-3-3-3-2-2-2-2-|

|-----------------|-----------------|-----------------|-----------------|
|-----------------|-----------------|-----------------|-----------------|
|-----------------|-----------------|-----------------|-----------------|
|-2-2-2-2-5-5-5-5-|-----------------|-2-2-2-2---------|-----------------|
|-0-0-0-0-3-3-3-3-|-3-3-3-3-5-5-5-5-|-0-0-0-0-5-5-5-5-|-3-3-3-3-2-2-2-2-|
|-----------------|-3-3-3-3-5-5-5-5-|---------5-5-5-5-|-3-3-3-3-2-2-2-2-|

|-----------------|-----------------|-----------------|-----------------|
|-----------------|-----------------|-----------------|-----------------|
|-----------------|-----------------|-----------------|-----------------|
|-2-2-2-2-5-5-5-5-|-----------------|-2-2-2-2---------|-----------------|
|-0-0-0-0-3-3-3-3-|-3-3-3-3-5-5-5-5-|-0-0-0-0-5-5-5-5-|-3-3-3-3-2-2-2-2-|
|-----------------|-3-3-3-3-5-5-5-5-|---------5-5-5-5-|-3-3-3-3-2-2-2-2-|

|-----------------|-----------------|-----------------|-----------------|
|-----------------|-----------------|-----------------|-----------------|
|-----------------|-----------------|-----------------|-----------------|
|-2-2-2-2-5-5-5-5-|-----------------|-2-2-2-2---------|-----------------|
|-0-0-0-0-3-3-3-3-|-3-3-3-3-5-5-5-5-|-0-0-0-0-5-5-5-5-|-3-3-3-3-2-2-2-2-|
|-----------------|-3-3-3-3-5-5-5-5-|---------5-5-5-5-|-3-3-3-3-2-2-2-2-|

|------------------------------------------------------------------|
|------------------------------------------------------------------|
|------------------------------------------------------------------|
|------------------------------------------------------------------|
|------------------------------------------------------------------|
|-0000-0-0000-0-0000-0-0-0000-0-0-0000-0-0000-0-0000-0-0-0000-12b--|
Played alternately                                              ^ 
                                                             End on
                                                                   
2 comments total.
0 reply
shadowofbodom wrote on November 26 2005, 08:20 pm

good job - 5 stars

missed a few chords here and there, got the overall idea of the song

0 reply
remy2828 wrote on September 6 2006, 09:59 pm

sucked

http://www.ultimate-guitar.com/tabs/c/children_of_bodom/trashed_lost_and_strungout_ver3_tab.htm

go there and look at my comment

I want to post or [tab]
guest
You may want to rate the tab now too:
select rating
Please do not post tabs as comments. Select "correction" instead!