Oops, an error
Loading. Please wait.

Trashed Lost And Strungout Tab

ver3
ver3

Intro

Whole song

More versions @911Tabs.com
8,175 views 18 this week
7 commentsread comments
1 2 3 4 5
accurate
x 9
add to favorites launch autoscroll
font size
0
reset
Autoscroll
+/-
esc
set tempo
stop
Difficulty
Tuning
advanced
C G C F A D
WARNING: You are trying to view
                                    content from Ultimate-Guitar.com
                                    in an unauthorized application,
                                    which is prohibited.

                                    Please use an official Ultimate
                                    Guitar Tabs application for iPhone,
                                    iPad or Android to access legitimate
                                    chords, guitar, bass, and drum tabs
                                    from Ultimate-Guitar.com database.

                                    Type "ultimate guitar tabs" in Apple
                                    App Store's or Android Market's
                                    search to find the application.
Trashed, Lost and Strungout-Children of Bodom
Album: Are you dead yet?
All music written by Alexi Laiho

Lead Guitar: Alexi Laiho
Rhythm Guitar: Roope Latvala
Synthesizers: Janne Warman


DROP C TUNING

INTRO

Listen to the song to get where every thing comes in

Rhythm Intro pt.1 Pretty easy, just really fast
D|--------------------------------|----------------------------------|x3
A|--------------------------------|----------------------------------|
F|--------------------------------|----------------------------------|
C|--------------------------------|----------------------------------|
G|--------------------------------|----------------------------------|
C|-0000-0-0000-0-0000-0-0-0000-0-0|-0000-0-0000-0-0000-0-0-0000-0-0--|


Lead Intro. This is the hardest part of the song other than the solo its extremely 
to finger and it took me almost 15 minutes to get the notes right but it’s the only exact 
I’ve seen of it. It might take a long time to get it under your fingers. Practice is the key here.
||---------------------------------||----------------------------------||x4
||---------------------------------||----------------------------------||
||o--------------------------------||---------------------------------o||
||o----------8----8-7----7-6----6--||----------8----8-7----7-6-7-6-5--o||
||---5-8---7--5-7----5-7-----5-7---||--5-8---7--5-7----5-7-------------||
||-------0-------------------------||------0---------------------------||


Rhythm Intro pt.2 Simple whole notes and a little lick at the end to match the lead
||---------------|------------------||x2
||---------------|------------------||
||o--------------|-----------------o||
||o-0------2-----|0-----2--6-7-6-5-o||
||--0------2-----|0-----2-----------||
||--0------2-----|0-----2-----------||

Melody

Here’s the first of three variations for the melody

Lead Guitar and Synthesizer .Extremely melodic. Try to play it as connected as possible 
overlapping notes
|---------------------------|-------------------------|x4
|---------------------------|-------------------------|
|-14-11----13-------11------|-11------11--13------13--|
|-------11----14-11----11---|------12----------14-----|
|---------------------------|---12----------14--------|
|---------------------------|-------------------------|


Rhythm Guitar .Punk Rock sounding harmony for the melody
|---------------------------|-------------------------|
|---------------------------|-------------------------|
|---------------------------|-------------------------|
|-4--------2--------4-------|-0-----------2-----------|
|-4--------2--------4-------|-0-----------2-----------|
|-4--------2--------4-------|-0-----------2-----------|

Break Down

Rhythm Guitar plays the first time then Lead Guitar jumps in for the second time
Rhythm Guitar
|-----------------|-----------------|-----------------|-----------------|
|-----------------|-----------------|-----------------|-----------------|
|-----------------|-----------------|-----------------|-----------------|
|-----------------|-----------------|-----------------|-----------------|
|-----------------|-----------------|-3p2-2-3p2-2-3p2-|-3p2-6p5-3p2-1-1-|
|-3p2-2-3p2-2-3p2-|-3p2-6p5-3p2-1-1-|-3p2-2-3p2-2-3p2-|-3p2-6p5-3p2-1-1-|

Lead Guitar
|-----------------|-----------------|-----------------|-----------------|
|-----------------|-----------------|-----------------|-----------------|
|-----------------|-----------------|-----------------|-----------------|
|-----------------|-----------------|-----------------|-----------------|
|-----------------|-----------------|-3p2-2-3p2-2-3p2-|-3p2-6p5-3p2-1-1-|
|-----------------|-----------------|-3p2-2-3p2-2-3p2-|-3p2-6p5-3p2-1-1-|

Verse

Lead and Rhythm
||----------------|-----------------|------------------|---------------||
||----------------|-----------------|------------------|---------------||
||o---------------|--------(P.H.)[7]|------------------|--------------o||
||o---------------|--------------[7]|----------------5-|---7-5-3-5-7--o||
||-----3------6p2-|-----2/3---------|----------------3-|---------------||
||-0-0-3--0-0-6p2-|-0-0-2/3--0-0----|-0-0-2h3--0-0-0---|---------------||

Bridge (variation 1)

Lead Guitar
|-----------|-----------|---------------|---------------|
|-----------|-----------|---------------|---------------|
|-5---5---5-|--5---5--6-|---------------|-------------5-|
|-5---5---5-|--5---5--6-|-7-7----7-7----|------5-3-3-3--|
|-3---3---3-|--3---3--4-|-----5-5---5-5-|-3-3-3---------|
|-----------|-----------|---------------|---------------|

Rhythm Guitar
|-----------|-----------|---------------|---------------|
|-----------|-----------|---------------|---------------|
|-5---5---5-|--5---5--6-|---------------|----5------5---|
|-5---5---5-|--5---5--6-|-------7-----7-|-5------7------|
|-3---3---3-|--3---3--4-|-5-5-5--5-5-5--|---3--3---3—-3-|
|-----------|-----------|---------------|---------------|

|-----------|-----------|-----------------|-----------|
|-----------|-----------|-----------------|-----------|
|-5---5---5-|--5---5—-6-|-----------------|-----------|
|-5---5---5-|--5---5--6-|-----------------|-7\\-------|
|-3---3---3-|--3---3--4-|-5---5---4---4---|-5\\-------|
|-----------|-----------|---0---0---0---0-|-----------|
                                .   .   .   .


Verse

Lead and Rhythm
||----------------|-----------------|------------------|---------------||
||----------------|-----------------|------------------|---------------||
||o---------------|--------(P.H.)[7]|------------------|--------------o||
||o---------------|--------------[7]|----------------5-|---7-5-3-5-7--o||
||-----3------6p2-|-----2/3---------|----------------3-|---------------||
||-0-0-3--0-0-6p2-|-0-0-2/3--0-0----|-0-0-2h3--0-0-0---|---------------||Bridge

Bridge (variation 2)

Lead Guitar
|-----------|-----------|---------------|---------------|
|-----------|-----------|---------------|---------------|
|-5---5---5-|--5---5--6-|---------------|-------------5-|
|-5---5---5-|--5---5--6-|-7-7----7-7----|------5-3-3-3--|
|-3---3---3-|--3---3--4-|-----5-5---5-5-|-3-3-3---------|
|-----------|-----------|---------------|---------------|
Rhythm Guitar
|-----------|-----------|---------------|---------------|
|-----------|-----------|---------------|---------------|
|-5---5---5-|--5---5--6-|---------------|----5------5---|
|-5---5---5-|--5---5--6-|-------7-----7-|-5------7------|
|-3---3---3-|--3---3--4-|-5-5-5--5-5-5--|---3--3---3—-3-|
|-----------|-----------|---------------|---------------|

Lead Guitar
|-----------------------------------------------------------------|
|-----------------------------------------------------------------|
|-------------------------------------------------6---6---4---4---|
|---------------------------------4---4---6---6-----6---6---4---4-|
|-5---5---4---4---8---8---8---7-----5---5---4---4-----------------|
|---0---0---0---0---0---0---0---0---------------------------------|
Rhythm Guitar
|-----------------------------------------------------------------|
|-----------------------------------------------------------------|
|-----------------------------------------------------------------|
|-----------------------------------------------------------------|
|-5---5---4---4---8---8---8---7---9---9---7---7---14--14--12--12--|
|---0---0---0---0---0---0---0---0---0---0---0---0---0---0---0---0-|


Melody

Here’s the first of three variations for the melody

Lead Guitar and Synthesizer .Extremely melodic. Try to play it as connected as possible 
overlapping notes. Sweep the notes in the last measure
|---------------------------|-------------------------|x4
|---------------------------|-------------------------|
|-5--2-----4---------2------|-2--------2---4--------4-|
|-------2-----5---2-----2---|-------3------------5----|
|---------------------------|----3------------5-------|
|---------------------------|-------------------------|

Rhythm Guitar .Punk Rock sounding harmony for the melody
|---------------------------|-------------------------|
|---------------------------|-------------------------|
|---------------------------|-------------------------|
|-7--------5--------7-------|-3-----------5-----------|
|-7--------5--------7-------|-3-----------5-----------|
|-7--------5--------7-------|-3-----------5-----------|

Keyboard solo
||----------------|-----------------|------------------|---------------||
||----------------|-----------------|------------------|---------------||
||o---------------|--------(P.H.)[7]|------------------|--------------o||
||o---------------|--------------[7]|----------------5-|---7-5-3-5-7--o||
||-----3------6p2-|-----2/3---------|----------------3-|---------------||
||-0-0-3--0-0-6p2-|-0-0-2/3--0-0----|-0-0-2h3--0-0-0---|---------------||

pre chorus
|-----------------------------------------------------------------|
|-----------------------------------------------------------------|
|-------------------------------------------------6---6---4---4---|
|---------------------------------4---4---6---6-----6---6---4---4-|
|-5---5---4---4---8---8---8---7-----5---5---4---4-----------------|
|---0---0---0---0---0---0---0---0---------------------------------|
Chorus
|-----------------|-----------------|-----------------|-----------------|
|-----------------|-----------------|-----------------|-----------------|
|-----------------|-----------------|-----------------|-----------------|
|-7-------10------|-3-------5-------|-7-------5-------|-3------2--------|
|-7-------10------|-3-------5-------|-7-------5-------|-3------2--------|
|-7-------10------|-3-------5-------|-7-------5-------|-3------2--------|

Melody

Here’s the first of three variations for the melody

Lead Guitar and Synthesizer .Extremely melodic. Try to play it as connected as possible 
overlapping notes. Sweep the notes in the last measure
|---------------------------|-------------------------|x4
|---------------------------|-------------------------|
|-7--4-----6---------4------|-4--------4---6--------6-|
|-------4-----7---4-----4---|-------5------------7----|
|---------------------------|----5------------7-------|
|---------------------------|-------------------------|

Rhythm Guitar .Punk Rock sounding harmony for the melody
|---------------------------|-------------------------|
|---------------------------|-------------------------|
|---------------------------|-------------------------|
|-9--------7--------9-------|-5-----------7-----------|
|-9--------7--------9-------|-5-----------7-----------|
|-9--------7--------9-------|-5-----------7-----------|


SOLO. Its extremely long and complicated I have notations above to help you out

Pull whammy up…… whammy dive………All Sixteenth Notes
|-----------/-|--------\-----|------------------------------9-11{12-11-9-11-12-9-14-9}x2|
|----------/--|---------\----|----------------------9-10-12-----------------------------|
|-(9)N.H.-/---|-[6]P.H.--\---|-----------6-8-8-9-11-------------------------------------|
|--------/----|-----------\--|------6-7-9-----------------------------------------------|
|-------/-----|------------\-|-6-7-9----------------------------------------------------|
|------/------|-------------\|----------------------------------------------------------|

………bend………………………………release.……………………bend……………………release…………whammy up
|-[14]P.H.---T19—---po14-----T19---po14---T19--—po14-----[14]P.H.-/-Y---/--P--/---------|
|----/..(hold bend).....\--------------/(hold bend)\-------------/-M---/--U--/----------|
|---/--------------------\------------/-------------\-----------/-M---/--L--/-----------|
|--/----------------------\----------/---------------\---------/-A---/--L--/------------|
|-------------------------------------------------------------/-H---/--U--/-------------|
|------------------------------------------------------------/-W---/--P--/--------------|

All Triplets
|-24-22-20------------------------------------------------------------------------------|
|----------22-20-18---------------------------------------------------------------------|
|-------------------21-19-17------------------------------------------------------------|
|---------------------------19-17-15-------15--------[17]P.H.---------------------------|
|------------------------------------19-17---19-17-15-----------------------------------|
|---------------------------------------------------------------------------------------|

Eight Notes………………………………………………………sixteenth notes
|----------------------------22|--------------------------------------------------------|
|--------------------22--20----|-18-17-20-18-17-----------------------------------------|
|--------21--17~~19------------|----------------19-17-15-14-----15-14-------------------|
|----19------------------------|-----------------------------17--------17-15-14-15------|
|17----------------------------|--------------------------------------------------------|
|------------------------------|--------------------------------------------------------|

Triplets
|---------------------------------------------------------------------------------------|
|---------------------------------------------------------------------------------------|
|----14----15-14-17-15-14-------14------------------------------------------------------|
|-15----17----------------17-15----17-15-14-17-15-14------------------------------------|
|----------------------------------------------------17-15-13-17-16-15-13---------------|
|---------------------------------------------------------------------------------------|

Sixteenth note Sweep

|-----------------15--20--15---------------15--20--15--20--15----20--15--12-----12------|
|--------------17------------17----------17-------------------17-------------13----13--8|
|----------17-------------------17----17------------------------------------------------|
|------17--------------------------17---------------------------------------------------|
|15-19----------------------------------------------------------------------------------|
|---------------------------------------------------------------------------------------|

Sixteenth note Sweep(alternate fingering)
………………………………………………………tap………………………………………………………………tap…………tap…………………………tap
|------------12--15--20--15--12---------12--15--20--15--20--15--12--20--15--12----12----|
|---------13-------------------13----13---------------------------------------13----13-8|
|------12-------------------------12----------------------------------------------------|
|---14----------------------------------------------------------------------------------|
|15-------------------------------------------------------------------------------------|
|---------------------------------------------------------------------------------------|

|--13-------13---17--22--21--20-----|
|--------15-------------------------|
|-----14----------------------------|
|-----------------------------------|
|-----------------------------------|
|-----------------------------------|

Bridge (variation 3)

Lead Guitar
||------------|-----------|---------------|----------------||x3
||------------|-----------|---------------|----------------||
||o-5---5---5-|--5---5--6-|---------------|-------------5-o||
||o-5---5---5-|--5---5--6-|-7-7----7-7----|------5-3-3-3--o||
||--3---3---3-|--3---3--4-|-----5-5---5-5-|-3-3-3----------||
||------------|-----------|---------------|----------------||

Rhythm Guitar
||------------|-----------|---------------|----------------||x3
||------------|-----------|---------------|----------------||
||o-5---5---5-|--5---5--6-|---------------|----5------5---o||
||o-5---5---5-|--5---5--6-|-------7-----7-|-5------7------o||
||--3---3---3-|--3---3--4-|-5-5-5--5-5-5--|---3--3---3—-3--||
||------------|-----------|---------------|----------------||

Lead and Rhythm Guitar
|--------------------------------|----------------------------------|
|--------------------------------|----------------------------------|
|--------------------------------|----------------------------------|
|--------------------------------|-----------------------7-6-7-6-5--|
|-5---5---4---4---8---8---8---7--|-5---5---4---4---8-5--------------|
|---0---0---0---0---0---0---0---0|---0---0---0---0-----0------------|

Lead Guitar
|-----------------------------------------------------------------|
|-----------------------------------------------------------------|
|-------------------------------------------------6---6---4---4---|
|---------------------------------4---4---6---6-----6---6---4---4-|
|-5---5---4---4---8---8---8---7-----5---5---4---4-----------------|
|---0---0---0---0---0---0---0---0---------------------------------|


Rhythm Guitar
|-----------------------------------------------------------------|
|-----------------------------------------------------------------|
|-----------------------------------------------------------------|
|-----------------------------------------------------------------|
|-5---5---4---4---8---8---8---7---9---9---7---7---14--14--12--12--|
|---0---0---0---0---0---0---0---0---0---0---0---0---0---0---0---0-|


CHORUS


|-----------------|-----------------|-----------------|-----------------|
|-----------------|-----------------|-----------------|-----------------|
|-----------------|-----------------|-----------------|-----------------|
|-7-------10------|-3-------5-------|-7-------5-------|-3------2--------|
|-7-------10------|-3-------5-------|-7-------5-------|-3------2--------|
|-7-------10------|-3-------5-------|-7-------5-------|-3------2--------|

OUTRO


|--------------------------------|----------------------------------|
|--------------------------------|----------------------------------|
|--------------------------------|----------------------------------|
|--------------------------------|----------------------------------|
|--------------------------------|----------------------------------|
|-0000-0-0000-0-0000-1-1-0000-1-1|-0000-0-0000-0-0000-1-1-0000-1-1--|

|--------------------------------|----------------------------------|
|--------------------------------|----------------------------------|
|--------------------------------|----------------------------------|
|--------------------------------|----------------------------------|
|--------------------------------|----------------------------------|
|-0000-0-0000-0-0000-1-1-0000-1-1|-0000-0-0000-1100001100001100-2^--|
7 comments total. Showing first comments.
0 reply
arsonite wrote on January 17 2006, 08:23 am

Extremely well done. Good job!

Benny

0 reply
Kuikara wrote on March 16 2006, 02:29 pm

this is some tab man please leave your name when doing a tab so we can look at your other tabs
Sick Tab

Mark

0 reply
remy2828 wrote on September 6 2006, 09:55 pm

ok. the intro is off
the outro should be the intro
i also believe that he uses some weird natural harmonics in the outro

and the lead part to the intro is wayyy off. thats a lot harder than it should be
D|---------------------------------|---------------------------------|
A|---------------------------------|---------------------------------|
F|---------------------------------|---------------------------------|
C|---------------8-7-----7-6-----6-|---------------8-7-----7-6-7-6-5-| x4
G|-8-5---7-5---7-----5-7-----5-7---|-8-5---7-5---7-----5-7-----------|
C|-----0-----0---------------------|-----0-----0---------------------|

the lead melodic part is missing a slide, but thats all around well done. the three other melodic parts are an octabe lower than they should be.
and the synth you hear for the melodic things is just the keyboard playing along wit hthe guitar.
the breakdown into the verse is weldone
in the verse, i believe the pinch harmonic is the 2nd fret on the g string
alot easier that way
the first chorus is a little bit harder than you put it. also, the scond time you play it, theres a pinch harmonic somewhere

also, for the breakdoing into the second chorus, i think he just alternates from the e string to the a string the entire time, like this

Right guitar
D|---------------------------------|-----------------------------------|
A|---------------------------------|-----------------------------------|
F|---------------------------------|-----------------------------------|
C|---------------------------------|-----------------------------------|
G|-5---5---4---4---8---8---8---7---|-9---9---8---8---12---12---12---11-|
C|---0---0---0---0---0---0---0---0-|---0---0---0---0----0----0----0----|
Left guitar
D|---------------------------------|-------------------------------------|
A|---------------------------------|-------------------------------------|
F|---------------------------------|-------------------------------------|
C|---------------------------------|-------------------------------------|
G|-5---5---4---4---8---8---8---7---|-9---9---11---11---12---12---14---11-|
C|---0---0---0---0---0---0---0---0-|---0---0----0----0----0----0----0----|



i havnt realyl checked the solo, but yea
thats all iv gotta say

I want to post or [tab]
guest
You may want to rate the tab now too:
select rating
Please do not post tabs as comments. Select "correction" instead!