Oops, an error
Loading. Please wait.

Trashed Lost And Strunout Tab

668 views 1 this week
no commentswrite comment
1 2 3 4 5
please rate
Autoscroll
+/-
esc
set tempo
stop
Contributor
Difficulty
advanced
Hey! There's an official Ultimate Guitar app which is ideal
for learning songs when you're away from computer. Get the app
WARNING: You are trying to view
                                    content from Ultimate-Guitar.com
                                    in an unauthorized application,
                                    which is prohibited.

                                    Please use an official Ultimate
                                    Guitar Tabs application for iPhone,
                                    iPad or Android to access legitimate
                                    chords, guitar, bass, and drum tabs
                                    from Ultimate-Guitar.com database.

                                    Type "ultimate guitar tabs" in Apple
                                    App Store's or Android Market's
                                    search to find the application.

                                          Children of Bodom

Trashed, Lost and Strungout


The Tunning should look like this : C G C F A D

Intro
guitar 2: Roope
|---------------------------------|
|---------------------------------|
|---------------------------------|
|---------------------------------|
|---------------------------------|
|-00000--00000--00001-1--00001-1--|


 Guitar 1: "Wildchild"
|---------------------------------|
|---------------------------------|
|---------------7-6-----6-5-------|
|-7-0---6-5---7-----7-0-----0-6-7-|
|---------------------------------|
|-----0-----0---------------------|

|---------------------------------|
|---------------------------------|
|---------------7-6-----6-0-6-5-0-|
|-7-0---6-5---7-----7-0-----------|
|---------------------------------|
|-----0-----0---------------------|


 Roope
|---------------------------------|
|---------------------------------|
|---------------------------------|
|-0---------------7---------------|
|-0---------------7---------------|
|-0---------------7---------------|    

 "Wildchild"
|---------------------------------|
|---------------------------------|
|---------------7-6-----6-5-------|
|-7-0---6-5---7-----7-0-----0-6-7-|
|---------------------------------|
|-----0-----0---------------------|


 "Wildchild"

|---------------------------------|
|---------------------------------|
|---------------7-6-----6-5-------|
|-7-0---6-5---7-----7-0-----0-6-7-|
|---------------------------------|
|-----0-----0---------------------|

 Roope
|---------------------------------|
|---------------------------------|
|---------------------------------|
|-0---------------7---------------|
|-0---------------7---------------|
|-0---------------7---------------|


 "Wildchild"
|---------------------------------|
|---------------------------------|
|---------------7-6-----6-0-6-5-0-|
|-7-0---6-5---7-----7-0-----------|
|---------------------------------|
|-----0-----0---------------------|

 Roope
|---------------------------------|
|---------------------------------|
|---------------------------------|
|-0--------------7----------------|
|-0--------------7----------------|
|-0--------------7----------------|


Pre-Chorus

"Wildchild"
|-------------------------|-------------------------|
|----------------------14-|-------------------------|
|-14-11----13-------11----|-11-------14-13-11----13-| 4x.
|-------11----14-11-------|----11-12----------14----|
|-------------------------|-------------------------|
|-------------------------|-------------------------|

 Roope
|---------------------------|-------------------------|
|---------------------------|-------------------------|
|---------------------------|-------------------------|
|-4--------2--------4-------|-0-----------2-----------|
|-4--------2--------4-------|-0-----------2-----------|
|-4--------2--------4-------|-0-----------2-----------|

"Wildchild"

  N.H.   Roope---------------------------   "Wildchild" and Roope
|-<5b>-|-----------------|---------------|-----------------|---------------|
|------|-----------------|---------------|-----------------|---------------|
|------|-----------------|---------------|-----------------|---------------|
|------|-----------------|---------------|-----------------|---------------|
|------|-----------------|---------------|-3p2-2-3p2-2-3p2-|-3p2-6p5-3p2-1-|
|------|-3p2-2-3p2-2-3p2-|-3p2-6p5-3p2-1-|-3p2-2-3p2-2-3p2-|-3p2-6p5-3p2-1-|


Verse 1

"Wildchild" And Roope
|----------------|-----------------|----------------|---------------|
|----------------|-----------------|----------------|---------------|
|----------------|-------------N.H.|----------------|---------------|
|----------------|-------------<3>-|-----7--------5-|---7-5---5-7---| 2x.
|-----0------1p0-|-----2/3-----<3>-|-----5--------3-|-x-----8-----0-|
|-0-0-0--0-0-1p0-|-0-0-2/3--0-0----|-0-0-0--0-0-0---|-------------0-|
  . .    . .       . .      . .      . .    . . .

Bridge

   "Wildchild"                  
|---------------------------------|---------------------------------|
|---------------------------------|---------------------------------|
|---------------------------------|-------------------------------5-|
|-5-----5-----5-----5-----5---6---|-------7-------7-------5-3-3-3---|
|-3-----3-----3-----3-----3---4---|-5-5-5---5-5-5---3-3-3-----------|
|---------------------------------|---------------------------------|
                                    . . . . . . . . . . . . . . . .
  Roope                     
|---------------------------------|---------------------------------|
|---------------------------------|---------------------------------|
|---------------------------------|---------------------5-------5---|
|-5-----5-----5-----5-----5---6---|-7-7-----7-7-----5-------3-----3-|
|-3-----3-----3-----3-----3---4---|-----5-5-----5-5---3---3---3-----|
|---------------------------------|---------------------------------|
                                    . . . . . . . . . . . . . . . .
                            
  "Wildchild"
|---------------------------------|---------------------------|
|---------------------------------|---------------------------|
|-------ph------------------------|---------------------------|
|-5----(5)~---5-----5-----5---6---|---------------------------|
|-3---x-------3-----3-----3---4---|-5---5---4---4----x/-------|
|---------------------------------|---0---0---0---0--x/-------|
                                      .   .   .   .
 
  Roope                          
|---------------------------------|---------------------------|
|---------------------------------|---------------------------|
|-------ph------------------------|---------------------------|
|-5----(5)~---5-----5-----5---6---|---------------------------|
|-3---x-------3-----3-----3---4---|-5---5---4---4----x/-------|
|---------------------------------|---0---0---0---0--x/-------|
                                      .   .   .   .
 
Verse 1 (2x)

"Wildchild"  And Roope
|----------------|-----------------|----------------|---------------|
|----------------|-----------------|----------------|---------------|
|----------------|-------------N.H.|----------------|---------------|
|----------------|-------------<3>-|-----7--------5-|---7-5---5-7---| 
|-----0------1p0-|-----2/3-----<3>-|-----5--------3-|-x-----8-----0-|
|-0-0-0--0-0-1p0-|-0-0-2/3--0-0----|-0-0-0--0-0-0---|-------------0-|
  . .    . .       . .      . .      . .    . . .


   "Wildchild"      
|---------------------------------|---------------------------------|
|---------------------------------|---------------------------------|
|---------------------------------|-------------------------------5-|
|-5-----5-----5-----5-----5---6---|-------7-------7-------5-3-3-3---|
|-3-----3-----3-----3-----3---4---|-5-5-5---5-5-5---3-3-3-----------|
|---------------------------------|---------------------------------|
                                    . . . . . . . . . . . . . . . .

 Roope                   
|---------------------------------|---------------------------------|
|---------------------------------|---------------------------------|
|---------------------------------|---------------------5-------5---|
|-5-----5-----5-----5-----5---6---|-7-7-----7-7-----5-------3-----3-|
|-3-----3-----3-----3-----3---4---|-----5-5-----5-5---3---3---3-----|
|---------------------------------|---------------------------------|
                                    . . . . . . . . . . . . . . . . 
                            
 "Wildchild"

|---------------------------------|
|---------------------------------|
|-------ph------------------------|
|-5----(5)~---5-----5-----5---6---|
|-3---x-------3-----3-----3---4---|
|---------------------------------|

  Roope                         
|---------------------------------|
|---------------------------------|
|-------ph------------------------|
|-5----(5)~---5-----5-----5---6---|
|-3---x-------3-----3-----3---4---|
|---------------------------------|


 "Wildchild" And Roope
|-----------------------------------------------------------------|
|-----------------------------------------------------------------|
|-----------------------------------------------------------------|
|---------------------------------4---4---2---2---7---7---6---6---|
|-5---5---4---4---8---8---8---7-----------------------------------|
|---0---0---0---0---0---0---0---0---0---0---0---0---0---0---0---0-|
    .   .   .   .   .   .   .   .   .   .   .   .   .   .   .   .

Interlude

  "Wildchild"
|------------------------|-------------------------|
|---------------------17-|-------------------------|
|-17-14----16-------14---|-14-------17-16-14----16-|
|-------14----17-14------|----14-15----------17----|
|------------------------|-------------------------|
|------------------------|-------------------------|

 Roope                                  
|------------------------|-------------------------|
|------------------------|-------------------------|
|------------------------|-------------------------|
|-7--------5--------5----|-3-----------5------5----|
|-7--------5--------5----|-3-----------5------5----|
|-7--------5--------5----|-3-----------5------5----|


  "Wildchild"
|------------------------|--------------------------|
|---------------------17-|--------------------------|
|-17-14----16-------14---|-14-------17-16-14----16--|
|-------14----17-14------|----14-15----------17-----|
|------------------------|--------------------------|
|------------------------|--------------------------|

  
  Roope
|------------------------|-------------------------|
|------------------------|-------------------------|
|------------------------|-------------------------|
|-7--------5--------5----|-3-----------5------5----|
|-7--------5--------5----|-3-----------5------5----|
|-7--------5--------5----|-3-----------5------5----|



 "Wildchild"
|------------------------|-------------------------|
|---------------------17-|-------------------------|
|-17-14----16-------14---|-14-------17-16-14----16-|
|-------14----17-14------|----14-15----------17----|
|------------------------|-------------------------|
|------------------------|-------------------------|


 Roope                                   
|------------------------|-------------------------|
|------------------------|-------------------------|
|------------------------|-------------------------|
|-7--------5--------5----|-3-----------5------5----|
|-7--------5--------5----|-3-----------5------5----|
|-7--------5--------5----|-3-----------5------5----|



  "Wildchild"                          A.H.------>
|------------------------|-------------17b--17b----|
|---------------------17-|-------15-17-------------|
|-17-14----16-------14---|-14-17-------------------|
|-------14----17-14------|-------------------------|
|------------------------|-------------------------|
|------------------------|-------------------------|



  Roope
|------------------------|-------------------------|
|------------------------|-------------------------|
|------------------------|-------------------------|
|-7--------5--------5----|-3-----------5------5----|
|-7--------5--------5----|-3-----------5------5----|
|-7--------5--------5----|-3-----------5------5----|


---Keyboard Solo---

 "Wildchild" And Roope
|-------------------------------------|
|-------------------------------------|
|-------------------------------------|
|-------------------------------------|
|-0-0-2p0--0-0-6s2--0-0-2s3--0-0-0----|
|-0-0-2p0--0-0-6s2--0-0-2s3--0-0-0----|
  . .      . .      . .      . . .


 "Wildchild" And Roope
|-------------------------------------|
|-------------------------------------|
|-------------------------------------|
|----------------5----5---------------|
|-0-0-2p0--0-2-3-3----3----0-2-0-2-3--|
|-0-0-2p0--0-2-3-----------0-2-0-2-3--|
  . .      .               .   .


"Wildchild" And Roope
|-------------------------------------|
|-------------------------------------|
|-------------------------------------|
|-------------------------------------|
|0--0-2p0--0-0-6s2--0-0-2s3--0-0-0----|
|0--0-2p0--0-0-6s2--0-0-2s3--0-0-0----|
 .  .      . .      . .      . . .


"Wildchild" And Roope
|-------------------------------------|
|-------------------------------------|
|-------------------------------------|
|----------------6--------------------|
|-0-0-2p0--0-2-3-4--------------------|
|-0-0-2p0--0-2-3----------------------|
  . .      . . .


"Wildchild" And Roope
|----------------|-----------------|----------------|---------------|
|----------------|-----------------|----------------|---------------|
|----------------|-------------N.H.|----------------|---------------|
|----------------|-------------<3>-|-----7--------5-|---7-5---5-7---| 2x.
|-----0------1p0-|-----2/3-----<3>-|-----5--------3-|-x-----8-----0-|
|-0-0-0--0-0-1p0-|-0-0-2/3--0-0----|-0-0-0--0-0-0---|-------------0-|
  . .    . .       . .      . .      . .    . . .


"Wildchild" And Roope
|-----------------------------------------------------------------|
|-----------------------------------------------------------------|
|-----------------------------------------------------------------|
|---------------------------------4---4---2---2---7---7---6---6---|
|-5---5---4---4---8---8---8---7-----------------------------------|
|---0---0---0---0---0---0---0---0---0---0---0---0---0---0---0---0-|
    .   .   .   .   .   .   .   .   .   .   .   .   .   .   .   .


Chorus

"Wildchild" And Roope
|-----------------|-----------------|-----------------|-----------------|
|-----------------|-----------------|-----------------|-----------------|
|-----------------|-----------------|-----------------|-----------------|
|-2-2-2-2-5-5-5-5-|-----------------|-2-2-2-2---------|-----------------|
|-0-0-0-0-3-3-3-3-|-3-3-3-3-5-5-5-5-|-0-0-0-0-5-5-5-5-|-3-3-3-3-2-2-2-2-|
|-----------------|-3-3-3-3-5-5-5-5-|---------5-5-5-5-|-3-3-3-3-2-2-2-2-|


"Wildchild" And Roope  3x
|---------------------------------|
|---------------------------------|
|---------------------------------|
|-3-2-2-3-2-2-3-2-3-2-6-5-3-2-1-1-|
|-3-2-2-3-2-2-3-2-3-2-6-5-3-2-1-1-|
|-3-2-2-3-2-2-3-2-3-2-6-5-3-2-1-1-|

 
|---------------------------------|
|---------------------------------|
|---------------------------------|
|-3-2-2-3-2-2-3-2-3-2-6~---6~-----|
|-3-2-2-3-2-2-3-2-3-2-6~---6~-----|
|-3-2-2-3-2-2-3-2-3-2-6~---6~-----|


 "Wildchild" And Roope  x3
|---------------------------------|
|---------------------------------|
|---------------------------------|
|-3-2-2-3-2-2-3-2-3-2-6-5-3-2-1-1-|
|-3-2-2-3-2-2-3-2-3-2-6-5-3-2-1-1-|
|-3-2-2-3-2-2-3-2-3-2-6-5-3-2-1-1-|
  . . . . . . . . . . . . . . . .

 
|---------------------------------|
|---------------------------------|
|---------------------------------|
|-3-2---3-2---3-2---3-2-----------|
|-3-2---3-2---3-2---3-2-----------|
|-3-2---3-2---3-2---3-2-----------|


Before Guitar Solo

"Wildchild"
|-----------------|-----------------|-----------------|-----------------|
|---------------7-|-----------------|---------------7-|-----------------|
|-7-4---6-----4---|-4-----7-6-4---6-|-7-4---6-----4---|-4-----7-6-4---6-|
|-----4---7-4-----|---4-5-------7---|-----4---7-4-----|---4-5-------7---|
|-----------------|-----------------|-----------------|-----------------|
|-----------------|-----------------|-----------------|-----------------|

  Roope                                   
|-----------------|-----------------|-----------------|-----------------|
|-----------------|-----------------|-----------------|-----------------|
|-----------------|-----------------|-----------------|-----------------|
|-9-----7------7--|-5---------7---7-|-9-----7------7--|-5---------7---7-|
|-9-----7------7--|-5---------7---7-|-9-----7------7--|-5---------7---7-|
|-9-----7------7--|-5---------7---7-|-9-----7------7--|-5---------7---7-|


"Wildchilds Solo!!!!!!!!!!!!!!!!!!!!!!!!!!!!!!!!!!!!!!!!!!!!!!!!!!!!!!!!!!"

              N.H.
|----------9b-b-b-|-----------------7-|-12-11911-12-9149-12-11911-12-9149-|
|-N.H.-0~~--------|-------------7910--|-----------------------------------|
|--7b-------------|-------468689------|-----------------------------------|
|-----------------|----467------------|-----------------------------------|
|-----------------|-467---------------|-----------------------------------|
|-----------------|-------------------|-----------------------------------|

   N.H.---------->
|-----<7>----<5>--|-242220----------------------------------------|
|--<7>----<7>-----|-------242220----------------------------------|
|-----------------|-------------211917----------------------------|
|-----------------|-------------------211917-------------A.H.-----|
|-----------------|-------------------------191720191715--15------|
|-----------------|------------------------------------------12\--|

|---17-------171522\-|-1513171513---------------------|
|-15--1813/15--------|---------171513-----------------|
|--------------------|---------------1210141210-------|
|--------------------|-------------------------141210-|
|--------------------|--------------------------------|
|--------------------|--------------------------------|

|-------------------------|--------------------------|
|-------1110131011--------|--------------------------|
|-101412----------12109---|-14-----------------------|
|----------------------12-|---171514171514----1514---|
|-------------------------|---------------1715----17-|
|-------------------------|--------------------------|

|---------12h15t20p15p12----------12h15t20-|-p15t20p1512h15p12\1012101210\8-|
|-------13--------------13------13---------|--------------------------------|
|-----12------------------12--12-----------|--------------------------------|
|---14----------------------14-------------|--------------------------------|
|-15---------------------------------------|--------------------------------|
|------------------------------------------|--------------------------------|

|----------------|---------171615----|
|-10---13---15---|-18----15------18\-|
|-12b--15b--17b--|---1417------------|
|----------------|-------------------|
|----------------|-------------------|
|----------------|-------------------|

    Roope Underneath the solo

|---------------------------------------------|
|---------------------------------------------|
|---------------------------------------------|
|-6---------------------2---------------------|
|-4---------------------0---------------------|
|---------------------------------------------|


|---------------------------------------------|
|---------------------------------------------|
|---------------------------------------------|
|-6----------------9----5---------------------|
|-4----------------7----3---------------------|
|---------------------------------------------|


|---------------------------------------------|
|---------------------------------------------|
|---------------------------------------------|
|-7---------------------3---------------------|
|-5---------------------1---------------------|
|---------------------------------------------|


|---------------------------------------------|
|---------------------------------------------|
|-----------------------------------7-5-------|
|-5----------------7---5---7------7-----8-7-5-|
|-3----------------5---3---5---5-8------------|
|---------------------------------------------|


 "Wildchild"
|---------------------------------|---------------------------|
|---------------------------------|---------------------------|
|-------ph------------------------|---------------------------|
|-5----(5)~---5-----5-----5---6---|---------------------------|
|-3---x-------3-----3-----3---4---|-5---5---4---4----x/-------|
|---------------------------------|---0---0---0---0--x/-------|
                                      .   .   .   .

 Roope                         
|---------------------------------|---------------------------|
|---------------------------------|---------------------------|
|-------ph------------------------|---------------------------|
|-5----(5)~---5-----5-----5---6---|---------------------------|
|-3---x-------3-----3-----3---4---|-5---5---4---4----x/-------|
|---------------------------------|---0---0---0---0--x/-------|
                                      .   .   .   .

  "Wildchild"
|---------------------------------|---------------------------------|
|---------------------------------|---------------------------------|
|---------------------------------|-----------------------5-7-6-5-4-|
|---------------------------------|-------------------7-6-----------|
|-5---5---4---4---8---8---8---7---|-5---5---4---4---5---------------|
|---0---0---0---0---5---5---4---4-|---0---0---0---0-----------------|
    .   .   .   .   .   .   .   .     .   .   .   .

  Roope
|---------------------------------|---------------------------------|
|---------------------------------|---------------------------------|
|---------------------------------|---------------------------------|
|---------------------------------|-----------------7-----7-6-7-6-5-|
|-5---5---4---4---8---8---8---7---|-5---5---4---4-----5-5-----------|
|---0---0---0---0---5---5---4---4-|---0---0---0---0-----------------|
    .   .   .   .   .   .   .   .     .   .   .   .
 

 "Wildchild"
|---------------------------------|---------------------------------|
|---------------------------------|---------------------------------|
|---------------------------------|---------------------------------|
|---------------------------------|-4---4-----------7---7---7---6---|
|-5---5---4---4---8---8---8---7---|---------7---7-----5-------------|
|---0---0---0---0---5---5---4---4-|---5---5---4---4-----------------|
    .   .   .   .   .   .   .   .     .   .   .   .

  Roope
|---------------------------------|---------------------------------|
|---------------------------------|---------------------------------|
|---------------------------------|-----------------6---6---4---4---|
|---------------------------------|-4---4---6---6-----7---7---6---6-|
|-5---5---4---4---8---8---8---7---|---------------------------------|
|---0---0---0---0---5---5---4---4-|---5---5---4---4-----------------|


 "Wildchild" And Roope
|---------------------------------|
|---------------------------------|
|---------------------------------|
|---------------------------------|
|---------------------------------|
|-00000--00001-1--00001-1--00000--|

End on

 "Wildchild" And Roope
|---------------|
|---------------|
|---------------|
|---------------|
|---------------|
|-2~------------|




comments
We did not receive enough feedback on this tab! Please rate:
print report bad tab
1 2 3 4 5
I want to post or [tab]
guest
You may want to rate the tab now too:
select rating
Please do not post tabs as comments. Select "correction" instead!