Oops, an error
Loading. Please wait.

Warheart Bass Tab

ver1
ver1

Whole song

Interactive

More versions @911Tabs.com
2,081 views 1 this week
1 commentread comment
1 2 3 4 5
excellent!
x 1
add to favorites launch autoscroll
font size
0
reset
Autoscroll
+/-
esc
set tempo
stop
Contributor
WARNING: You are trying to view
                                    content from Ultimate-Guitar.com
                                    in an unauthorized application,
                                    which is prohibited.

                                    Please use an official Ultimate
                                    Guitar Tabs application for iPhone,
                                    iPad or Android to access legitimate
                                    chords, guitar, bass, and drum tabs
                                    from Ultimate-Guitar.com database.

                                    Type "ultimate guitar tabs" in Apple
                                    App Store's or Android Market's
                                    search to find the application.
Children of Bodom
Warheart (Bass)
Hatebreeder
Tabbed By Kevin Cruz
Originally From Taborama.com

Tunning: D G C F

F------------------------------|----------------------|
C------------------------------|----------------------|
G------------------------------|---------------------0|
D-0-0-0-0-2--0-0-0-0-2--0-0-0-0|-5--0-0-0-0-3--2--3---|

F------------------------------|-----------------------|
C------------------------------|-----------------------|
G------------------------------|------------------3---5|
D-0-0-0-0-2--0-0-0-0-3--0-0-0-0|-5--0-0-0-0-3--2-------|

F-----------------------|-----------------------|
C-----------------------|-----------------------|
G-7--7--7--7--5--5--5--5|-7--7--7--7------------|
D-----------------------|-------------8--8--8--8|

F-----------------------|-----------------------|----------|
C-----------------------|-5--5--5--5------------|----------|
G-7--7--7--7--5--5--5--5|-------------5--5--5--5|----------|
D-----------------------|-----------------------|-0---0---0|

F-----------|----------|-----------|
C-----------|----------|-----------|
G-6--6--6--6|----------|-6--6--6--6|
D-----------|-0---0---0|-----------|

F-----------------------|-----------------------|
C-----------------------|-----------------------|
G-7--7--7--7--5--5--5--5|-7--7--7--7------------|
D-----------------------|-------------8--8--8--8|

F-----------------------|-----------------------|----------|
C-----------------------|-5--5--5--5------------|----------|
G-7--7--7--7--5--5--5--5|-------------5--5--5--5|----------|
D-----------------------|-----------------------|-0---0---0|

F-----------|----------|-----------|
C-----------|----------|-----------|
G-6--6--6--6|----------|-6--6--6--6|
D-----------|-0---0---0|-----------|

F-----------------------|--|--|-----------------------|
C----------------------5|--|--|-----------------------|
G-7--------5--7---------|-7|-8|-7--7--7--7--7--7--7--7|
D----0--0--------0--0---|--|--|-----------------------|

F-----------------------|-----------------------|
C-5--5--5--5------------|-----------------------|
G-------------3--3--3--3|-7--7--7--7--7--7--7--7|
D-----------------------|-----------------------|

F-----------------------|-----------------------|
C-------7--7------------|-----------------------|
G-9--9--------6--6--9--9|-7--7--7--7--7--7--7--7|
D-----------------------|-----------------------|

F-----------------------|-----------------------|
C-5--5--5--5------------|-----------------------|
G-------------3--3--3--3|-7--7--7--7--7--7--7--7|
D-----------------------|-----------------------|

F-----------------------------------|
C-----------------------------------|
G-7--7--7--6--6--6------------------|
D-------------------8--8--8--5--5--5|

F-----------------------|-----------------------|
C-----------------------|-5--5--5--5------------|
G-7--7--7--7--7--7--7--7|-------------5--5--5--5|
D-----------------------|-----------------------|

F-----------------------|-----------------------|------------|
C-----------------------|-------------5--5------|-----------7|
G-7--7--7--7--7--7--7--7|-7--7--------------5--5|-7--9--10---|
D-----------------------|-------8--8------------|------------|

F-----------------------|-------------------------------|
C-----------------------|-------------------------------|
G-7--7--7--7------------|-4--4-4-4-4-4-4-4-4-4-4-4-4-4-4|
D-------------7--7--7--7|-------------------------------|

F---------------------|-------------------------------|
C---------------------|-------------------------------|
G-4-4-4-4-4-4-4-2----2|-4--4-4-4-4-4-4-4-4-4-4-4-4-4-4|
D---------------------|-------------------------------|

F-----------|-------------------------------|
C-----------|-------------------------------|
G-4--0-----2|-4--4-4-4-4-4-4-4-4-4-4-4-4-4-4|
D-------0---|-------------------------------|

F---------------------|-------------------------------|
C---------------------|-------------------------------|
G-4-4-4-4-4-4-4-2----2|-4--4-4-4-4-4-4-4-4-4-4-4-4-4-4|
D---------------------|-------------------------------|

F-----------|-----------------------------------|
C-----------|-----------------------------------|
G-4--0-----2|-6--6--6--6--6--6------------------|
D-------0---|-------------------6--6--6--6--6--6|

F-----------------------------------|
C-----------------------------------|
G-6--6--6--6--6--6------------------|  X2
D-------------------6--6--6--6--6--6|

F-----------------------------------|
C-4--4--4--4--4--4------------------|
G-------------------4--4--4--4--4--4|
D-----------------------------------|

F-----------------------------------|
C-----------------------------------|
G-6--6--6--6--6--6------------------|  X3
D-------------------6--6--6--6--6--6|

F-----------------------------------|--|--|
C-4--4--4--4--4--4------------------|--|--|
G-------------------4--4--4--4--4--4|-6|-0|
D-----------------------------------|--|--|

F-----------------------|
C-----------------------|
G-7--7--7--7--7--7--7--7|
D-----------------------|

F-----------------------|-----------------------|
C-5--5--5--5------------|-----------------------|
G-------------3--3--3--3|-7--7--7--7--7--7--7--7|
D-----------------------|-----------------------|

F-----------------------|-----------------------|
C----7-----------7------|-----------------------|
G-9--------6--9-----6--9|-7--7--7--7--7--7--7--7|
D-------8---------------|-----------------------|

F-----------------------|-----------------------|
C-5--5--5--5------------|-----------------------|
G-------------3--3--3--3|-7--7--7--7--7--7--7--7|
D-----------------------|-----------------------|

F-----------|-----------------------|
C-----------|-----------------------|
G-----------|-----------------------|
D-0--12----0|-2--2--2--2--2--2--2--2|

F-----------------------|-----------------------|
C-----------------------|-----------------------|
G-0--0--0--0------------|-----------------------|
D-------------0--0--0--0|-2--2--2--2--2--2--2--2|

F-2-----------4---------|-----------------------|
C-----------------------|-----------------------|
G----0--0--0-----2--2--2|-4--4--4--4--4--4--4--4|
D-----------------------|-----------------------|

F-----------------------|-----------------------|--|
C-2--2--2--2------------|-----------------------|--|
G-------------2--2--2--2|-4--4--4--4--4--4--4--4|-4|
D-----------------------|-----------------------|--|

F-----|-----|-----|-----|-----|-----|----------|
C-----|-----|-2---|-----|-----|-----|-2--------|
G-4---|-4---|----2|-4---|-4---|-4---|-----2---4|
D----4|----4|-----|----4|----4|----4|----------|

F-----|-----------|-----|----------|-----|----------|
C-----|-----------|-----|----------|-----|----------|
G-7--5|----------5|-7--5|---------5|-7--5|---------5|
D-----|-5-----8---|-----|-5----8---|-----|-7----8---|

F----------------|-----------|-----------------------|
C----------------|-3--2------|-----------------------|
G-5--------------|-------5--3|-5--5--5--5--5--5--5--5|
D------1--1--1--1|-----------|-----------------------|

F-----------------------|-----------------------|
C-----------------------|-----------------------|
G-1--1--1--------3--3--5|-5--5--5--5--3--5--5--3|
D----------1--1---------|-----------------------|

F-----------------------|-----------------------|
C-----------------------|-----------------------|
G-3--3--3--3--1--1--1--1|-5--5--5--5--5--5--5--5|
D-----------------------|-----------------------|

F-----------------------|-----------------------|
C-----------------------|-----------------------|
G-1--1--1--------3--3--5|-5--5--5--5--5--5--5--3|
D----------1--1---------|-----------------------|

F-----------------------|-----------------------|
C-----------------------|-----------------------|
G-3--3--3--3--1--1--1--1|---5--5-5-5----5--5-5-5|
D-----------------------|-----------------------|

F-----------------------|
C-----------------------|
G---5--5-5-5----5--5-5-5|
D-----------------------|

F--|--|--|--|-----------|-----------|--|--|--|--|
C--|--|--|--|-----------|-----------|--|--|--|--|
G--|-5|-3|-0|-2--2--2--2|-2--2--2--2|--|-5|-3|-0|
D-0|--|--|--|-----------|-----------|-0|--|--|--|

F-----------------------|--|
C-----------------------|--|
G-2--2--2--2--2--2--2--2|-2|
D-----------------------|--|

F-------------------------------|
C-------------------------------|
G-------------------------------| X2
D-0--0-0-0-0-0-0-0-0-0-0-0-0-0-0|

F-------------------------------|
C-------------------------------|
G-------------------------------|
D-3--3-3-3-3-3-3-3-3-3-3-3-3-3-3|

F-------------------------------|
C----------------0-0-0-0-4-4-4-4|
G---------2-2-2-2---------------|

D-2-2-2-2-----------------------|

F-------------------------------|
C-------------------------------|
G-------------------------------| X2
D-0--0-0-0-0-0-0-0-0-0-0-0-0-0-0|

F--|------------------------------|
C--|------------------------------|
G-1|------------------------------|
D--|-0-0-0-0-2--0-0-0-0-3--0-0-0-0|

F----------------------|--|------|
C----------------------|--|------|
G---------------------0|--|-5---5|
D-5--0-0-0-0-3--2--3---|-0|------|

F-----------------------|
C-----------------------|
G-7--7--7--7--7--7--7--7|
D-----------------------|

F-----------------------|-----------------------|
C-5--5--5--5------------|-----------------------|
G-------------3--3--3--3|-7--7--7--7--7--7--7--7|
D-----------------------|-----------------------|

F-----------------------|-----------------------|
C-------7--7------------|-----------------------|
G-9--9--------6--6--9--9|-7--7--7--7--7--7--7--7|
D-----------------------|-----------------------|

F-----------------------|-----------------------|
C-5--5--5--5------------|-----------------------|
G-------------3--3--3--3|-7--7--7--7--7--7--7--7|
D-----------------------|-----------------------|

F-----------------------------------|
C-----------------------------------|
G-7--7--7--6--6--6------------------|
D-------------------8--8--8--5--5--5|

F-----------------------|-----------------------|
C-----------------------|-5--5--5--5------------|
G-7--7--7--7--7--7--7--7|-------------5--5--5--5|
D-----------------------|-----------------------|

F-----------------------|-----------------------|
C-----------------------|-------------5--5------|
G-7--7--7--7--7--7--7--7|-7--7--------------5--5|
D-----------------------|-------8--8------------|

F-----------------------|-----------------------|------------|
C-----------------------|-5--5--5--5------------|-----------7|
G-7--7--7--7--7--7--7--7|-------------5--5--5--5|-7--9--10---|
D-----------------------|-----------------------|------------|

F-----------------------|-------------------------------|
C-----------------------|-------------------------------|
G-7--7--7--7------------|-4--4-4-4-4-4-4-4-4-4-4-4-4-4-4|
D-------------7--7--7--7|-------------------------------|

F---------------------|-------------------------------|
C---------------------|-------------------------------|
G-4-4-4-4-4-4-4-2----2|-4--4-4-4-4-4-4-4-4-4-4-4-4-4-4|
D---------------------|-------------------------------|

F-----------|
C-----------|
G-4--0-----2|
D-------0---|

F-----------------------------------|
C-----------------------------------|
G-6--6--6--6--6--6------------------|  X3
D-------------------6--6--6--6--6--6|

F-----------------------------------|
C-4--4--4--4--4--4------------------|
G-------------------4--4--4--4--4--4|
D-----------------------------------|

F-----------------------------------|
C-----------------------------------|
G-6--6--6--6--6--6------------------|  X3
D-------------------6--6--6--6--6--6|

F-----------------------------------|--|-----|-----|
C-4--4--4--4--4--4------------------|--|-----|-----|
G-------------------4--4--4--4--4--4|-6|-3--5|-7--5|
D-----------------------------------|--|-----|-----|

F---------|-----|---------|-----|---------|
C---------|-----|---------|-----|---------|
G-2---3--5|-7--5|-0---3--5|-7--5|-2---3--5|
D---------|-----|---------|-----|---------|

F------------------|-----------|
C------------------|-3--2------|
G-5----------------|-------5--3|
D-----1--1--1--1--1|-----------|

F-----------------------|-----------------------|
C-----------------------|-----------------------|
G-5--5--5--5--5--5--5--5|-1--1--1--------3--3--5|
D-----------------------|----------1--1---------|

F-----------------------|-----------------------|
C-----------------------|-----------------------|
G-5--5--5--5--3--5--5--3|-3--3--3--3--1--1--1--1|
D-----------------------|-----------------------|

F-----------------------|-----------------------|
C-----------------------|-----------------------|
G-5--5--5--5--5--5--5--5|-1--1--1--------3--3--5|
D-----------------------|----------1--1---------|

F-----------------------|-----------------------|
C-----------------------|-----------------------|
G-5--5--5--5--3--5--5--3|-3--3--3--3--1--1--1--1|
D-----------------------|-----------------------|

F-----------------------|-----------------------|
C-----------------------|-----------------------|
G-7--7--7--7--7--7--7--7|-3--3--3--------5--5--7|
D-----------------------|----------3--3---------|

F-----------------------|-----------------------|
C-----------------------|-----------------------|
G-7--7--7--7--5--7--7--5|-5--5--5--5--3--5--5--3|
D-----------------------|-----------------------|

F-----------------------|-----------------------|
C-----------------------|-----------------------|
G-7--7--7--7--7--7--7--7|-3--3--3--------5--5--7|
D-----------------------|----------3--3---------|

F-----------------------|-----------------------|
C-----------------------|-----------------------|
G-7--7--7--7--5--7--7--5|-5--5--5--5--3--5--5--3|
D-----------------------|-----------------------|

F-----------------------|------------------------|
C-----------------------|------------------------|
G-5--5--5--3--3--3--3---|------------------------|
D----------------------0|----0--0-0-0----0--0-0-0|
comments
We did not receive enough feedback on this tab! Please rate:
print report bad tab
1 2 3 4 5
1 comment total.
0 reply
Wilkesy1000 wrote on March 17 2008, 08:13 am

nice tab

I want to post or [tab]
guest
You may want to rate the tab now too:
select rating
Please do not post tabs as comments. Select "correction" instead!