Oops, an error
Loading. Please wait.

Wrath Within Bass Tab

ver1
ver1

Whole song

Interactive

More versions @911Tabs.com
308 views 1 this week
no commentswrite comment
1 2 3 4 5
poor
x 1
add to favorites launch autoscroll
font size
0
reset
Autoscroll
+/-
esc
set tempo
stop
Contributor
WARNING: You are trying to view
                                    content from Ultimate-Guitar.com
                                    in an unauthorized application,
                                    which is prohibited.

                                    Please use an official Ultimate
                                    Guitar Tabs application for iPhone,
                                    iPad or Android to access legitimate
                                    chords, guitar, bass, and drum tabs
                                    from Ultimate-Guitar.com database.

                                    Type "ultimate guitar tabs" in Apple
                                    App Store's or Android Market's
                                    search to find the application.
tune down

D||--------------------------------|--------------------------------|
A||--------------------------------|--------------------------------|
F||--------------------------------|--------------------------------|
C||--------------------------------|--------------------------------|
G||--------------------------------|--------------------------------|
D||--5--5-5-5-5-5-5-5--5-5-5-5-5-5-|--5--5-5-5-5-5-5-5--5-5-5-5-5-5-|


                                                                  
--------------------------------|--------------------------------|
--------------------------------|--------------------------------|
--------------------------------|--------------------------------|
--------------------------------|--------------------------------|
--------------------------------|--------------------------------|
--5--5-5-5-5-5-5-5--5-5-5-5-5-5-|--5--5-5-5-5-5-5-5--5-5-5-5-5-5-|


                                                                  
--------------------------------|--------------------------------|
--------------------------------|--------------------------------|
--------------------------------|--------------------------------|
--------------------------------|--------------------------------|
--------------------------------|--------------------------------|
--5--5-5-5-5-5-5-5--5-5-5-5-5-5-|--5--5-5-5-5-5-5-5--5-5-5-5-5-5-|


                                                                  
--------------------------------|--------------------------------|
--------------------------------|--------------------------------|
--------------------------------|--------------------------------|
--------------------------------|--------------------------------|
--------------------------------|--4--4-4-4-4-4-4-4--4-4-4-4-4-4-|
--5--5-5-5-5-5-5-5--5-5-5-5-5-5-|--------------------------------|


                                                                  
--------------------------------|--------------------------------|
--------------------------------|--------------------------------|
--------------------------------|--------------------------------|
--------------------------------|--------------------------------|
--------------------------------|--------------------------------|
--5--5-5-5-5-5-5-5--5-5-5-5-5-5-|--2--2-2-2-2-2-2-2--2-2-2-2-2-2-|


                                                                   
--------------------------|------------------|--------------------|
--------------------------|------------------|--------------------|
-----5--7--9--7--5--4-----|------------------|--------------------|
-----------------------6--|------------------|--------------------|
--0-----------------------|------------------|--------------------|
--------------------------|------------------|------5--------5----|


                                                               
--------------------|--------------------|--------------------|
--------------------|--------------------|--------------------|
--------------------|--------------------|--------------------|
--------------------|--------------------|--------------------|
--------------------|--------------------|--------------------|
------5--------5----|------5--------5----|------5--------5----|


                                                                     
--------------------|--------------------|-------------------|------|
--------------------|--------------------|-------------------|------|
--------------------|--------------------|-------------------|------|
--------------------|--------------------|-------------------|------|
--------------------|------6--------6----|------6------------|------|
------5--------5----|--------------------|-------------------|------|


                                                       
-------------------------|----------------------------|
-------------------------|----------------------------|
-------------------------|----------------------------|
-------------------------|----------------------------|
-------------------------|----------------------------|
--5----5--5--5--5--5--5--|------5--5-5-5--5-5-5-5-5-5-|


                                                         
-------------------------|------------------------------|
-------------------------|------------------------------|
-------------------------|------------------------------|
-------------------------|------------------------------|
----------------------4--|------4-4-4-4-4-4-4-4-4-4-4-4-|
--5----5--5--5--5--5-----|------------------------------|


                                                       
-------------------------|----------------------------|
-------------------------|----------------------------|
-------------------------|----------------------------|
-------------------------|----------------------------|
-------------------------|----------------------------|
--5----5--5--5--5--5--2--|------2--2-2-2--2-2-2-2-2-2-|


                                                                    
---------------------------|--------------------------|------------|
---------------------------|--------------------------|------------|
---------------------------|--------------------------|------------|
-----7--9--10--9--7--6--6--|--------------------------|------------|
--0------------------------|--------------------------|------------|
---------------------------|--2--2--2--2--2--2--2--2--|--5--5------|


                                                                      
----------------------------------|----------------------------------|
----------------------------------|----------------------------------|
----------------------------------|----------------------------------|
----------------------------------|----------------------------------|
--7-7-7-7-7-7-7-7-7-7-7-7-7-7-7-7-|--7-7-7-7-7-7-7-7-7-7-7-7-7-7-7-7-|
----------------------------------|----------------------------------|


                                                                 
----------------------------------|-----------------------------|
----------------------------------|-----------------------------|
----------------------------------|-----------------------------|
----------------------------------|-----------------------------|
--7-7-7-7-7-7-7-7-7-7-7-7-7-7-7-7-|--7-7-7-7-7-7-7-7-8--5--7----|
----------------------------------|-----------------------------|


                                                                     
---------------------------------|----------------------------------|
---------------------------------|----------------------------------|
---------------------------------|----------------------------------|
---------------------------------|----------------------------------|
--7--7-7-7-7-7-7-7-7-7-7-7-7-7-7-|--7-7-7-7-7-7-7-7-7-7-7-7-7-7-7-7-|
---------------------------------|----------------------------------|


                                                         
----------------------------------|---------------------|
----------------------------------|---------------------|
----------------------------------|---------------------|
----------------------------------|---------------------|
--7-7-7-7-7-7-7-7-7-7-7-7-7-7-7-7-|---------------------|
----------------------------------|--8----7----0--------|


                                                                      
----------------------------------|----------------------------------|
----------------------------------|----------------------------------|
----------------------------------|----------------------------------|
----------------------------------|----------------------------------|
--7-7-7-7-7-7-7-7-7-7-7-7-7-7-7-7-|--7-7-7-7-7-7-7-7-7-7-7-7-7-7-7-7-|
----------------------------------|----------------------------------|


                                                                      
----------------------------------|----------------------------------|
----------------------------------|----------------------------------|
----------------------------------|----------------------------------|
--7-7-7-7-7-7-7-7-7-7-7-7-7-7-7-7-|--7-7-7-7-7-7-7-7-7-7-7-7-7-7-7-7-|
----------------------------------|----------------------------------|
----------------------------------|----------------------------------|


                                                   
--------------------------------------------------|
--------------------------------------------------|
--------------------------------------------------|
--10-10-10-10-10-10-10-10-10-10-10-10-10-10-10-10-|
--------------------------------------------------|
--------------------------------------------------|


                                                                 
----------------------------------|-----------------------------|
----------------------------------|-----------------------------|
----------------------------------|-----------------------------|
--5-5-5-5-5-5-5-5-----------------|-----------------------------|
------------------5-5-5-5-5-5-5-5-|--7-7-7-7-7-7-5--7--7-7-7----|
----------------------------------|-----------------------------|


                                                      
--------------------------------|--------------------|
--------------------------------|--------------------|
--------------------------------|--------------------|
------------7-------------------|--------------------|
--7--9--10-----10--9--7----5----|--------------------|
--------------------------------|--3--------2--------|


                                                          
------------------------------------|--------------------|
------------------------------------|--------------------|
------------------------------------|--------------------|
------------------------------------|--------------------|
------------------------------------|--3--------5--------|
--0----0--0--0--0--0----0--0--0--0--|--------------------|


                                                            
--------------------------------------|--------------------|
--------------------------------------|--------------------|
--------------------------------------|--------------------|
--------------------------------------|--------------------|
--------------------------------------|--------------------|
--0--0--0--0--0--0--0--0--0--0--0--0--|--3--------2--------|


                                                                             
--------------------------------|--------------------|----------------------|
--------------------------------|--------------------|----------------------|
--------------------------------|--------------------|----------------------|
--------------------------------|--------------------|----------------------|
--------------------------------|--------------------|----------------------|
--0--0-0-0-0-0-0-0--0-0-0-0-0-0-|--5--------7--------|--8----10----7--------|


                                                        
-------------------|------|------|---------------------|
-------------------|------|------|---------------------|
-------------------|------|------|---------------------|
-------------------|------|------|---------------------|
--7----------------|------|------|--3----5----7--------|
-------------------|------|------|---------------------|


                                                                  
--------------------------------|--------------------------------|
--------------------------------|--------------------------------|
--------------------------------|--------------------------------|
--------------------------------|--------------------------------|
--------------------------------|--------------------------------|
--0-0-0-0-0--0-0-0--0-0-0-0-0-0-|--0-0-0-0-0--0-0-0--0-0-0-0-0-0-|


                                                               
--------------------------------|-----------------------------|
--------------------------------|-----------------------------|
--------------------------------|-----------------------------|
--------------------------------|-----------------------------|
--------------------------------|------------------8--5--7----|
--0-0-0-0-0--0-0-0--0-0-0-0-0-0-|--0-0-0-0-0-0-0-0------------|


                                                                      
----------------------------------|----------------------------------|
----------------------------------|----------------------------------|
----------------------------------|----------------------------------|
----------------------------------|----------------------------------|
----------------------------------|----------------------------------|
--0-0-0-0-0-0-0-0-0-0-0-0-0-0-0-0-|--0-0-0-0-0-0-0-0-0-0-0-0-0-0-0-0-|


                                                                    
--------------------|-------------------|--------------------------|
--------------------|-------------------|--------------------------|
--------------------|-------------------|--------------------------|
--------------------|-------------------|--------------------------|
--7--------5--------|--3----------------|--7--7--7--7--7--7--7--7--|
--------------------|-------------------|--------------------------|


                                                      
--------------------------|--------------------------|
--------------------------|--------------------------|
--------------------------|--------------------------|
--------------------------|--------------------------|
--6--6--6--6--6--6--6--6--|--7--7--7--7--7--7--7--7--|
--------------------------|--------------------------|


                                                      
--------------------------|--------------------------|
--------------------------|--------------------------|
--------------------------|--------------------------|
--------------------------|--------------------------|
--6--6--6--6--6--6--6--6--|--7--7--7--7--7--7--7--7--|
--------------------------|--------------------------|


                                                      
--------------------------|--------------------------|
--------------------------|--------------------------|
--------------------------|--------------------------|
--------------------------|--------------------------|
--6--6--6--6--6--6--6--6--|--7--7--7--7--7--7--7--7--|
--------------------------|--------------------------|


                                                      
--------------------------|--------------------------|
--------------------------|--------------------------|
--------------------------|--------------------------|
--------------------------|--------------------------|
--6--6--6--6--6--6--6--6--|--7--7--7--7--7--7--7--7--|
--------------------------|--------------------------|


                                                      
--------------------------|--------------------------|
--------------------------|--------------------------|
--------------------------|--------------------------|
--------------------------|--------------------------|
--6--6--6--6--6--6--6--6--|--7--7--7--7--7--7--7--7--|
--------------------------|--------------------------|


                                                      
--------------------------|--------------------------|
--------------------------|--------------------------|
--------------------------|--------------------------|
--------------------------|--------------------------|
--6--6--6--6--6--6--6--6--|--7--7--7--7--7--7--7--7--|
--------------------------|--------------------------|


                                                      
--------------------------|--------------------------|
--------------------------|--------------------------|
--------------------------|--------------------------|
--------------------------|--------------------------|
--6--6--6--6--6--6--6--6--|--7--7--7--7--7--7--7--7--|
--------------------------|--------------------------|


                                                                                
--------------------------|-------------------------|--------------------------|
--------------------------|-------------------------|--------------------------|
--------------------------|-------------------------|--------------------------|
--------------------------|-------------------------|--------------------------|
--6--6--6--6--6--6--6--6--|-------------------------|--------------------------|
--------------------------|--3----3--3--3--3--3--3--|--3--3--3--3--3--3--3--5--|


                                                                                
------------------|-------------------|---------------------|------------------|
------------------|-------------------|---------------------|------------------|
------------------|-------------------|---------------------|------------------|
------------------|-------------------|---------------------|------------------|
------------------|--3----------------|------------------3--|------------------|
------------------|-------------------|--5--------3---------|------------------|


                                                                   
-------------------|-------------------|--------------------------|
-------------------|-------------------|--------------------------|
-------------------|-------------------|--------------------------|
-------------------|-------------------|--------------------------|
-------------------|--3----------------|--------------------------|
--5----------------|-------------------|--0--0--0--0--0--0--0--0--|


                                                                   
--------------------------|-------------------|-------------------|
--------------------------|-------------------|-------------------|
--------------------------|-------------------|-------------------|
--------------------------|-------------------|-------------------|
--------------------------|-------------------|--3----------------|
--0--0--0--0--0--0--0--0--|--5----------------|-------------------|


                                                             
---------------------|------------------|-------------------|
---------------------|------------------|-------------------|
---------------------|------------------|-------------------|
---------------------|------------------|-------------------|
------------------3--|------------------|-------------------|
--5--------3---------|------------------|--5----------------|


                                                                          
-------------------|--------------------------|--------------------------|
-------------------|--------------------------|--------------------------|
-------------------|--------------------------|--------------------------|
-------------------|--------------------------|--------------------------|
--3----------------|--------------------------|--------------------------|
-------------------|--0--0--0--0--0--0--0--0--|--0--0--0--0--0--0--0--0--|


                                                              
----------------------------|--------------------------------|
----------------------------|--------------------------------|
----------------------------|--------------------------------|
----------------------7--9--|--------------------------------|
--10--9--8--7--9--10--------|--7----8----8----7----8----8----|
----------------------------|--------------------------------|


                                                              
----------------------------|--------------------------------|
----------------------------|--------------------------------|
----------------------------|--------------------------------|
----------------------7--9--|--------------------------------|
--10--9--8--7--9--10--------|--7----6----6----7----6----6----|
----------------------------|--------------------------------|


                                                                       
--------------------|--------------------|----------------------------|
--------------------|--------------------|----------------------------|
--------------------|--------------------|----------------------------|
--------------------|--------------------|----------------------7--9--|
--------------------|--7--------6--------|--10--9--8--7--9--10--------|
--0--0--------------|--------------------|----------------------------|


                                                                   
----------------------|----------------------|--------------------|
----------------------|----------------------|--------------------|
----------------------|----------------------|--------------------|
----------------------|----------------------|--------------------|
-------2----7---------|-----------------5----|--7--------6--------|
--0--------------6----|--5----0----3---------|--------------------|


                                                                           
----------------------------|----------------------|----------------------|
----------------------------|----------------------|----------------------|
----------------------------|----------------------|----------------------|
----------------------7--9--|----------------------|----------------------|
--10--9--8--7--9--10--------|-------2----7---------|-----------------5----|
----------------------------|--0--------------6----|--5----0----3---------|


                                                                               
--------------------------|------------------------|--------------------------|
--------------------------|------------------------|--------------------------|
--------------------------|------------------------|--------------------------|
--------------------------|------------------------|--------------------------|
--------------------------|------------------------|--------------------------|
--5--5--5--5--5--5--5--5--|--3--3--3----5----5--5--|--5--5--5--5--5--5--5--5--|


                                                                        
---------------------|--------------------------|----------------------|
---------------------|--------------------------|----------------------|
---------------------|--------------------------|----------------------|
---------------------|--------------------------|----------------------|
---------------------|--------------------------|----------------------|
--3----8----5--------|--5--5--5--5--5--5--5--5--|--3----8----5----7----|


                                                                      
--------------------------|---------------------|--------------------|
--------------------------|---------------------|--------------------|
--------------------------|---------------------|--------------------|
--------------------------|---------------------|--------------------|
--------------------------|-------5-------------|-----------5--------|
--8--8--8--8--8--8--8--8--|--3---------5--------|--5-----------------|


                                                                
--------------------|--------------------|---------------------|
--------------------|--------------------|---------------------|
--------------------|--------------------|---------------------|
--------------------|--------------------|---------------------|
-----------3--------|-----------2--------|---------------------|
--3-----------------|--1-----------------|--0----3----5--------|


                                                                               
--------------------------|------------------------|--------------------------|
--------------------------|------------------------|--------------------------|
--------------------------|------------------------|--------------------------|
--------------------------|------------------------|--------------------------|
--------------------------|------------------------|--------------------------|
--5--5--5--5--5--5--5--5--|--3--3--3----5----5--5--|--5--5--5--5--5--5--5--5--|


                                                                        
---------------------|--------------------------|----------------------|
---------------------|--------------------------|----------------------|
---------------------|--------------------------|----------------------|
---------------------|--------------------------|----------------------|
---------------------|--------------------------|----------------------|
--3----8----5--------|--5--5--5--5--5--5--5--5--|--3----8----5----7----|


                                                                            
--------------------------|---------------------|--------------------------|
--------------------------|---------------------|--------------------------|
--------------------------|---------------------|--------------------------|
--------------------------|---------------------|--------------------------|
--------------------------|-------5-------------|--------------------------|
--8--8--8--8--8--8--8--8--|--3---------5--------|--7--7--7--7--7--7--7--7--|


                                                                           
------------------------|--------------------------|----------------------|
------------------------|--------------------------|----------------------|
------------------------|--------------------------|----------------------|
------------------------|--------------------------|----------------------|
------------------------|--------------------------|----------------------|
--5--5--5----7----7--7--|--7--7--7--7--7--7--7--7--|--5----10----7--------|


                                                   
--------------------------|-----------------------|
--------------------------|-----------------------|
--------------------------|-----------------------|
--------------------------|-----------------------|
--------------------------|-----------------------|
--7--7--7--7--7--7--7--7--|--5----10----7----9----|


                                                         
----------------------------------|---------------------|
----------------------------------|---------------------|
----------------------------------|---------------------|
----------------------------------|---------------------|
----------------------------------|-------7-------------|
--10--10--10--10--10--10--10--10--|--5---------7--------|


                                                                               
--------------------------|------------------------|--------------------------|
--------------------------|------------------------|--------------------------|
--------------------------|------------------------|--------------------------|
--------------------------|------------------------|--------------------------|
--7--7--7--7--7--7--7--7--|--5--5--5----7----7--7--|--7--7--7--7--7--7--7--7--|
--------------------------|------------------------|--------------------------|


                                                                           
----------------------|--------------------------|------------------------|
----------------------|--------------------------|------------------------|
----------------------|--------------------------|------------------------|
----------------------|--------------------------|------------------------|
--5----10----7--------|--7--7--7--7--7--7--7--7--|--5--5--5----7----7--7--|
----------------------|--------------------------|------------------------|


                                                                          
----------------------------------|--------------------------------------|
----------------------------------|--------------------------------------|
----------------------------------|--------------------------------------|
----------------------------------|--------------------------------------|
--7-7-7-7-5-5-5-5-----------------|--10-10-10-10-9-9-9-9-7-7-7-7-5-5-5-5-|
------------------7-7-7-7-5-5-5-5-|--------------------------------------|


                                                                    
--------------------|-------------------|--------------------------|
--------------------|-------------------|--------------------------|
--------------------|-------------------|--------------------------|
--------------------|-------------------|--------------------------|
--7--------5--------|--3----------------|--7--7--7--7--7--7--7--7--|
--------------------|-------------------|--------------------------|


                                                      
--------------------------|--------------------------|
--------------------------|--------------------------|
--------------------------|--------------------------|
--------------------------|--------------------------|
--6--6--6--6--6--6--6--6--|--7--7--7--7--7--7--7--7--|
--------------------------|--------------------------|


                                                      
--------------------------|--------------------------|
--------------------------|--------------------------|
--------------------------|--------------------------|
--------------------------|--------------------------|
--6--6--6--6--6--6--6--6--|--7--7--7--7--7--7--7--7--|
--------------------------|--------------------------|


                                                      
--------------------------|--------------------------|
--------------------------|--------------------------|
--------------------------|--------------------------|
--------------------------|--------------------------|
--6--6--6--6--6--6--6--6--|--7--7--7--7--7--7--7--7--|
--------------------------|--------------------------|


                                                      
--------------------------|--------------------------|
--------------------------|--------------------------|
--------------------------|--------------------------|
--------------------------|--------------------------|
--6--6--6--6--6--6--6--6--|--7--7--7--7--7--7--7--7--|
--------------------------|--------------------------|


                                                      
--------------------------|--------------------------|
--------------------------|--------------------------|
--------------------------|--------------------------|
--------------------------|--------------------------|
--6--6--6--6--6--6--6--6--|--7--7--7--7--7--7--7--7--|
--------------------------|--------------------------|


                                                      
--------------------------|--------------------------|
--------------------------|--------------------------|
--------------------------|--------------------------|
--------------------------|--------------------------|
--6--6--6--6--6--6--6--6--|--7--7--7--7--7--7--7--7--|
--------------------------|--------------------------|


                                                                  
--------------------------|--------------------------------------|
--------------------------|--------------------------------------|
--------------------------|--------------------------------------|
--------------------------|------------------7-7-7-7-10-10-10-10-|
--6--6--6--6--6--6--6--6--|--6-6-6-6-9-9-9-9---------------------|
--------------------------|--------------------------------------|


                                                                       
--------------------------------------|-------------------------------|
--------------------------------------|-------------------------------|
--8-8-8-8-11-11-11-11-----------------|-------------------------------|
--------------------------------------|-------------------------------|
----------------------3-3-3-3-6-6-6-6-|-----------------5----7--------|
--------------------------------------|--0----0----0------------------|


                     
-------------------||
-------------------||
-------------------||
-------------------||
--7/---------------||
-------------------||
comments
We did not receive enough feedback on this tab! Please rate:
print report bad tab
1 2 3 4 5
I want to post or [tab]
guest
You may want to rate the tab now too:
select rating
Please do not post tabs as comments. Select "correction" instead!