Oops, an error
Loading. Please wait.

Squattas Paradise Ep Tab

508 views 3 this week
no commentswrite comment
1 2 3 4 5
please rate
Autoscroll
+/-
esc
set tempo
stop
Difficulty
intermediate
Hey! There's an official Ultimate Guitar app which is ideal
for learning songs when you're away from computer. Get the app
WARNING: You are trying to view
                                    content from Ultimate-Guitar.com
                                    in an unauthorized application,
                                    which is prohibited.

                                    Please use an official Ultimate
                                    Guitar Tabs application for iPhone,
                                    iPad or Android to access legitimate
                                    chords, guitar, bass, and drum tabs
                                    from Ultimate-Guitar.com database.

                                    Type "ultimate guitar tabs" in Apple
                                    App Store's or Android Market's
                                    search to find the application.
Track Listing:
1. Infested (Lindane Conspiracy) by: UNKNOWN
2. Death Song                    by: rinio
3. Born To Die                   by: rinio
4. Suicide (A Better Way)        by: UNKNOWN

                 1. Infested (Lindane Conspiracy)                           
Lead             by: UNKNOWN

                                                                 



             E  E   E  E  E   E  E  E      E  E  E   E  E  E   E  E   
E||-------|----------------------------|--12-------------------------|
B||-------|--9--9--10--9--9--12--9--9--|------9--9--12--9--9--10--9--|
G||-------|----------------------------|-----------------------------|
D||-------|----------------------------|-----------------------------|
A||-------|----------------------------|-----------------------------|
E||-------|----------------------------|-----------------------------|


  E  E   E  E  E   E  E  E      E  E  E   E  E  E   E  E   
----------------------------|--12-------------------------|
--9--9--10--9--9--12--9--9--|------9--9--12--9--9--10--9--|
----------------------------|-----------------------------|
----------------------------|-----------------------------|
----------------------------|-----------------------------|
----------------------------|-----------------------------|


  E  E   E  E  E   E  E  E      E  E  E   E  E  E   E  E   
----------------------------|--12-------------------------|
--9--9--10--9--9--12--9--9--|------9--9--12--9--9--10--9--|
----------------------------|-----------------------------|
----------------------------|-----------------------------|
----------------------------|-----------------------------|
----------------------------|-----------------------------|


  E  E   E  E  E   E  E  E      E  E  E   E  E  E   E  E     W                 
----------------------------|--12-------------------------|-------------------|
--9--9--10--9--9--12--9--9--|------9--9--12--9--9--10--9--|--9----------------|
----------------------------|-----------------------------|-------------------|
----------------------------|-----------------------------|-------------------|
----------------------------|-----------------------------|-------------------|
----------------------------|-----------------------------|-------------------|


   H.            E   E       W                    W                 
-------------------------|--------------------|--12----------------|
--10-------------L--10h--|--12----------------|--------------------|
-------------------------|--------------------|--------------------|
-------------------------|--------------------|--------------------|
-------------------------|--------------------|--------------------|
-------------------------|--------------------|--------------------|


   W                   W                    W                 
--------------------|-------------------|--------------------|
--------------------|-------------------|--------------------|
--------------------|-------------------|--------------------|
--------------------|-------------------|--------------------|
--14----------------|--7----------------|--11----------------|
--12----------------|--5----------------|---9----------------|


  E  E  E  E  E  E  E  E      E   E   E   E   E   E   E   E   
--------------------------|----------------------------------|
--------------------------|----------------------------------|
--------------------------|----------------------------------|
--------------------------|----------------------------------|
--9--9--9--9--9--9--9--9--|--14--14--14--14--14--14--14--14--|
--7--7--7--7--7--7--7--7--|--12--12--12--12--12--12--12--12--|


  E  E  E  E  E  E  E  E      E   E   E   E   E   E   E   E   
--------------------------|----------------------------------|
--------------------------|----------------------------------|
--------------------------|----------------------------------|
--------------------------|----------------------------------|
--7--7--7--7--7--7--7--7--|--11--11--11--11--11--11--11--11--|
--5--5--5--5--5--5--5--5--|---9---9---9---9---9---9---9---9--|


  E  E  E  E  E  E  E  E     W                    W                 
--------------------------|-------------------|--------------------|
--------------------------|-------------------|--------------------|
--------------------------|--9----------------|--14----------------|
--------------------------|-------------------|--------------------|
--9--9--9--9--9--9--9--9--|-------------------|--------------------|
--7--7--7--7--7--7--7--7--|-------------------|--------------------|


   W                    W                   E   E  E   E  E   E  E   E   
--------------------|--------------------|--x--12--x--12--x--12--x--12--|
--------------------|--------------------|--x--12--x--12--x--12--x--12--|
--13----------------|--11----------------|--x--13--x--13--x--13--x--13--|
--------------------|--------------------|------------------------------|
--------------------|--------------------|------------------------------|
--------------------|--------------------|------------------------------|


  E  E  E  E  E  E  E  E     E   E  E   E  E   E  E   E   
--x--5--x--5--x--5--x--5--|--x---9--x---9--x---9--x---9--|
--x--5--x--5--x--5--x--5--|--x---9--x---9--x---9--x---9--|
--x--6--x--6--x--6--x--6--|--x--10--x--10--x--10--x--10--|
--------------------------|------------------------------|
--------------------------|------------------------------|
--------------------------|------------------------------|


  E  E  E  E  E  E  E  E     E   E  E   E  E   E  E   E   
--x--7--x--7--x--7--x--7--|--x--12--x--12--x--12--x--12--|
--x--7--x--7--x--7--x--7--|--x--12--x--12--x--12--x--12--|
--x--8--x--8--x--8--x--8--|--x--13--x--13--x--13--x--13--|
--------------------------|------------------------------|
--------------------------|------------------------------|
--------------------------|------------------------------|


  E  E  E  E  E  E  E  E     E   E  E   E  E   E  E   E   
--x--5--x--5--x--5--x--5--|--x---9--x---9--x---9--x---9--|
--x--5--x--5--x--5--x--5--|--x---9--x---9--x---9--x---9--|
--x--6--x--6--x--6--x--6--|--x--10--x--10--x--10--x--10--|
--------------------------|------------------------------|
--------------------------|------------------------------|
--------------------------|------------------------------|


  E  E  E  E  E  E  E  E     E   E  E   E  E   E  E   E   
--x--7--x--7--x--7--x--7--|--x--12--x--12--x--12--x--12--|
--x--7--x--7--x--7--x--7--|--x--12--x--12--x--12--x--12--|
--x--8--x--8--x--8--x--8--|--x--13--x--13--x--13--x--13--|
--------------------------|------------------------------|
--------------------------|------------------------------|
--------------------------|------------------------------|


  E  E  E  E  E  E  E  E     E   E  E   E  E   E  E   E   
--x--5--x--5--x--5--x--5--|--x---9--x---9--x---9--x---9--|
--x--5--x--5--x--5--x--5--|--x---9--x---9--x---9--x---9--|
--x--6--x--6--x--6--x--6--|--x--10--x--10--x--10--x--10--|
--------------------------|------------------------------|
--------------------------|------------------------------|
--------------------------|------------------------------|


  E  E  E  E  E  E  E  E     E   E  E   E  E   E  E   E   
--x--7--x--7--x--7--x--7--|--x--12--x--12--x--12--x--12--|
--x--7--x--7--x--7--x--7--|--x--12--x--12--x--12--x--12--|
--x--8--x--8--x--8--x--8--|--x--13--x--13--x--13--x--13--|
--------------------------|------------------------------|
--------------------------|------------------------------|
--------------------------|------------------------------|


  E  E  E  E  E  E  E  E     E   E  E   E  E   E  E   E   
--x--5--x--5--x--5--x--5--|--x---9--x---9--x---9--x---9--|
--x--5--x--5--x--5--x--5--|--x---9--x---9--x---9--x---9--|
--x--6--x--6--x--6--x--6--|--x--10--x--10--x--10--x--10--|
--------------------------|------------------------------|
--------------------------|------------------------------|
--------------------------|------------------------------|


  E  E  E  E  E  E  E  E      E   E   E   E   E   E   E   E   
--------------------------|----------------------------------|
--------------------------|----------------------------------|
--------------------------|----------------------------------|
--------------------------|----------------------------------|
--9--9--9--9--9--9--9--9--|--14--14--14--14--14--14--14--14--|
--7--7--7--7--7--7--7--7--|--12--12--12--12--12--12--12--12--|


  E  E  E  E  E  E  E  E      E   E   E   E   E   E   E   E   
--------------------------|----------------------------------|
--------------------------|----------------------------------|
--------------------------|----------------------------------|
--------------------------|----------------------------------|
--7--7--7--7--7--7--7--7--|--11--11--11--11--11--11--11--11--|
--5--5--5--5--5--5--5--5--|---9---9---9---9---9---9---9---9--|


  E  E  E  E  E  E  E  E     W                    W                 
--------------------------|-------------------|--------------------|
--------------------------|-------------------|--------------------|
--------------------------|--9----------------|--14----------------|
--------------------------|-------------------|--------------------|
--9--9--9--9--9--9--9--9--|-------------------|--------------------|
--7--7--7--7--7--7--7--7--|-------------------|--------------------|


   W                    W                   E   E  E   E  E   E  E   E   
--------------------|--------------------|--x--12--x--12--x--12--x--12--|
--------------------|--------------------|--x--12--x--12--x--12--x--12--|
--13----------------|--11----------------|--x--13--x--13--x--13--x--13--|
--------------------|--------------------|------------------------------|
--------------------|--------------------|------------------------------|
--------------------|--------------------|------------------------------|


  E  E  E  E  E  E  E  E     E   E  E   E  E   E  E   E   
--x--5--x--5--x--5--x--5--|--x---9--x---9--x---9--x---9--|
--x--5--x--5--x--5--x--5--|--x---9--x---9--x---9--x---9--|
--x--6--x--6--x--6--x--6--|--x--10--x--10--x--10--x--10--|
--------------------------|------------------------------|
--------------------------|------------------------------|
--------------------------|------------------------------|


  E  E  E  E  E  E  E  E     E   E  E   E  E   E  E   E   
--x--7--x--7--x--7--x--7--|--x--12--x--12--x--12--x--12--|
--x--7--x--7--x--7--x--7--|--x--12--x--12--x--12--x--12--|
--x--8--x--8--x--8--x--8--|--x--13--x--13--x--13--x--13--|
--------------------------|------------------------------|
--------------------------|------------------------------|
--------------------------|------------------------------|


  E  E  E  E  E  E  E  E     E   E  E   E  E   E  E   E   
--x--5--x--5--x--5--x--5--|--x---9--x---9--x---9--x---9--|
--x--5--x--5--x--5--x--5--|--x---9--x---9--x---9--x---9--|
--x--6--x--6--x--6--x--6--|--x--10--x--10--x--10--x--10--|
--------------------------|------------------------------|
--------------------------|------------------------------|
--------------------------|------------------------------|


  E  E  E  E  E  E  E  E     E   E  E   E  E   E  E   E   
--x--7--x--7--x--7--x--7--|--x--12--x--12--x--12--x--12--|
--x--7--x--7--x--7--x--7--|--x--12--x--12--x--12--x--12--|
--x--8--x--8--x--8--x--8--|--x--13--x--13--x--13--x--13--|
--------------------------|------------------------------|
--------------------------|------------------------------|
--------------------------|------------------------------|


  E  E  E  E  E  E  E  E     E   E  E   E  E   E  E   E   
--x--5--x--5--x--5--x--5--|--x---9--x---9--x---9--x---9--|
--x--5--x--5--x--5--x--5--|--x---9--x---9--x---9--x---9--|
--x--6--x--6--x--6--x--6--|--x--10--x--10--x--10--x--10--|
--------------------------|------------------------------|
--------------------------|------------------------------|
--------------------------|------------------------------|


  E  E  E  E  E  E  E  E     E   E   E  Q    Q    E     E  E  E  Q    Q    E   
--x--7--x--7--x--7--x--7--|--------------------------|------------------------|
--x--7--x--7--x--7--x--7--|--------------------------|------------------------|
--x--8--x--8--x--8--x--8--|--------------------------|------------------------|
--------------------------|--------------------------|------------------------|
--------------------------|-----14--14---------------|-----7--7---------------|
--------------------------|-----12--12---------------|-----5--5---------------|


   E   E  Q     E   E  Q       E  E  E  E  E  E  E  E   
----------------------------|--------------------------|
----------------------------|--------------------------|
----------------------------|--------------------------|
----------------------------|--------------------------|
--11--11-------11--11-------|--9--9--9--9--9--9--9--9--|
---9---9--------9---9-------|--7--7--7--7--7--7--7--7--|


   E   E   E   E   E   E   E   E     E  E  E  E  E  E  E  E   
----------------------------------|--------------------------|
----------------------------------|--------------------------|
----------------------------------|--------------------------|
----------------------------------|--------------------------|
--14--14--14--14--14--14--14--14--|--7--7--7--7--7--7--7--7--|
--12--12--12--12--12--12--12--12--|--5--5--5--5--5--5--5--5--|


   E   E   E   E   E   E   E   E     E  E  E  E  E  E  E  E   
----------------------------------|--------------------------|
----------------------------------|--------------------------|
----------------------------------|--------------------------|
----------------------------------|--------------------------|
--11--11--11--11--11--11--11--11--|--9--9--9--9--9--9--9--9--|
---9---9---9---9---9---9---9---9--|--7--7--7--7--7--7--7--7--|


  W                    W                    W                 
-------------------|--------------------|--------------------|
-------------------|--------------------|--------------------|
--9----------------|--14----------------|--13----------------|
-------------------|--------------------|--------------------|
-------------------|--------------------|--------------------|
-------------------|--------------------|--------------------|


   W                                                         
--------------------|-------------------|-------------------|
--------------------|-------------------|-------------------|
--11----------------|-------------------|-------------------|
--------------------|-------------------|-------------------|
--------------------|-------------------|-------------------|
--------------------|-------------------|-------------------|


                                          E  E   E  E  E   E  E  E   
-------------------|-------------------|----------------------------|
-------------------|-------------------|--9--9--10--9--9--12--9--9--|
-------------------|-------------------|----------------------------|
-------------------|-------------------|----------------------------|
-------------------|-------------------|----------------------------|
-------------------|-------------------|----------------------------|


   E  E  E   E  E  E   E  E     E  E   E  E  E   E  E  E   
--12-------------------------|----------------------------|
------9--9--12--9--9--10--9--|--9--9--10--9--9--12--9--9--|
-----------------------------|----------------------------|
-----------------------------|----------------------------|
-----------------------------|----------------------------|
-----------------------------|----------------------------|


   E  E  E   H        E     E  E   E  E  E   E  E  E   
--12---------------------|----------------------------|
------9--9--12-----------|--9--9--10--9--9--12--9--9--|
-------------------------|----------------------------|
-------------------------|----------------------------|
-------------------------|----------------------------|
-------------------------|----------------------------|


   E  E  E   E  E  E   E  E     E  E   E  E  E   E  E  E      W                 
--12-------------------------|----------------------------|--12----------------|
------9--9--12--9--9--10--9--|--9--9--10--9--9--12--9--9--|--------------------|
-----------------------------|----------------------------|--------------------|
-----------------------------|----------------------------|--------------------|
-----------------------------|----------------------------|--------------------|
-----------------------------|----------------------------|--------------------|


  E  E   E  E  E   E  E  E      E  E  E   E  E  E   E  E   
----------------------------|--12-------------------------|
--9--9--10--9--9--12--9--9--|------9--9--12--9--9--10--9--|
----------------------------|-----------------------------|
----------------------------|-----------------------------|
----------------------------|-----------------------------|
----------------------------|-----------------------------|


  E  E   E  E  E   E  E  E      E  E  E   E  E  E   E  E   
----------------------------|--12-------------------------|
--9--9--10--9--9--12-----9--|------9--9--12--9--9--10--9--|
----------------------------|-----------------------------|
----------------------------|-----------------------------|
----------------------------|-----------------------------|
----------------------------|-----------------------------|


  E  E   E  E  E   E  E  E      E  E  E   E  E  E   E  E   
----------------------------|--12-------------------------|
--9--9--10--9--9--12--9--9--|------9--9--12--9--9--10--9--|
----------------------------|-----------------------------|
----------------------------|-----------------------------|
----------------------------|-----------------------------|
----------------------------|-----------------------------|


  E  E   E  E  E   E  E  E      E   E   E   E   E   E   Q     
----------------------------|--12--12--12--12--12--12--12----|
--9--9--10--9--9--12-----9--|--------------------------------|
----------------------------|--------------------------------|
----------------------------|--------------------------------|
----------------------------|--------------------------------|
----------------------------|--------------------------------|


  E   E  E   E  E   E  E   E     E  E  E  E  E  E  E  E   
--x--12--x--12--x--12--x--12--|--x--5--x--5--x--5--x--5--|
--x--12--x--12--x--12--x--12--|--x--5--x--5--x--5--x--5--|
--x--13--x--13--x--13--x--13--|--x--6--x--6--x--6--x--6--|
------------------------------|--------------------------|
------------------------------|--------------------------|
------------------------------|--------------------------|


  E   E  E   E  E   E  E   E     E  E  E  E  E  E  E  E   
--x---9--x---9--x---9--x---9--|--x--7--x--7--x--7--x--7--|
--x---9--x---9--x---9--x---9--|--x--7--x--7--x--7--x--7--|
--x--10--x--10--x--10--x--10--|--x--8--x--8--x--8--x--8--|
------------------------------|--------------------------|
------------------------------|--------------------------|
------------------------------|--------------------------|


  E   E  E   E  E   E  E   E     E  E  E  E  E  E  E  E   
--x--12--x--12--x--12--x--12--|--x--5--x--5--x--5--x--5--|
--x--12--x--12--x--12--x--12--|--x--5--x--5--x--5--x--5--|
--x--13--x--13--x--13--x--13--|--x--6--x--6--x--6--x--6--|
------------------------------|--------------------------|
------------------------------|--------------------------|
------------------------------|--------------------------|


  E   E  E   E  E   E  E   E     E  E  E  E  E  E  E  E   
--x---9--x---9--x---9--x---9--|--x--7--x--7--x--7--x--7--|
--x---9--x---9--x---9--x---9--|--x--7--x--7--x--7--x--7--|
--x--10--x--10--x--10--x--10--|--x--8--x--8--x--8--x--8--|
------------------------------|--------------------------|
------------------------------|--------------------------|
------------------------------|--------------------------|


   E   E   E   E   H           E  E  E  E  H           E  E  E  E   H         
----------------------------|-----------------------|------------------------|
----------------------------|-----------------------|------------------------|
----------------------------|-----------------------|------------------------|
----------------------------|-----------------------|------------------------|
------------------14--------|--------------7--------|--------------11--------|
--12--12--12--12--12--------|--5--5--5--5--5--------|--9--9--9--9---9--------|


  E  E  Q    E  E  Q        E   E   E   E   H           E  E  E  E  H         
------------------------|----------------------------|-----------------------|
------------------------|----------------------------|-----------------------|
------------------------|----------------------------|-----------------------|
------------------------|----------------------------|-----------------------|
--------9----------9----|------------------14--------|--------------7--------|
--7--7--7----7--7--7----|--12--12--12--12--12--------|--5--5--5--5--5--------|


  E  E  E  E   H           E  E  E  E  E  E  E  E   
------------------------|--------------------------|
------------------------|--------------------------|
------------------------|--------------------------|
------------------------|--------------------------|
--------------11--------|--9--9--9--9--9--9--9--9--|
--9--9--9--9---9--------|--7--7--7--7--7--7--7--7--|


   E   E   E   E   E   E   E   E     E  E  E  E  E  E  E  E   
----------------------------------|--------------------------|
----------------------------------|--------------------------|
----------------------------------|--------------------------|
----------------------------------|--------------------------|
--14--14--14--14--14--14--14--14--|--7--7--7--7--7--7--7--7--|
--12--12--12--12--12--12--12--12--|--5--5--5--5--5--5--5--5--|


   E   E   E   E   E   E   E   E     E  E  E  E  E  E  E  E   
----------------------------------|--------------------------|
----------------------------------|--------------------------|
----------------------------------|--------------------------|
----------------------------------|--------------------------|
--11--11--11--11--11--11--11--11--|--9--9--9--9--9--9--9--9--|
---9---9---9---9---9---9---9---9--|--7--7--7--7--7--7--7--7--|


   E   E   E   E   E   E   E   E     E  E  E  E  E  E  E  E   
----------------------------------|--------------------------|
----------------------------------|--------------------------|
----------------------------------|--------------------------|
----------------------------------|--------------------------|
--14--14--14--14--14--14--14--14--|--7--7--7--7--7--7--7--7--|
--12--12--12--12--12--12--12--12--|--5--5--5--5--5--5--5--5--|


   E   E   E   E   E   E   E   E     E  E  E  E  E  E  E  E   
----------------------------------|--------------------------|
----------------------------------|--------------------------|
----------------------------------|--------------------------|
----------------------------------|--------------------------|
--11--11--11--11--11--11--11--11--|--9--9--9--9--9--9--9--9--|
---9---9---9---9---9---9---9---9--|--7--7--7--7--7--7--7--7--|


   E   E   E   E   E   E   E   E     E  E  E  E  E  E  E  E   
----------------------------------|--------------------------|
----------------------------------|--------------------------|
----------------------------------|--------------------------|
----------------------------------|--------------------------|
--14--14--14--14--14--14--14--14--|--7--7--7--7--7--7--7--7--|
--12--12--12--12--12--12--12--12--|--5--5--5--5--5--5--5--5--|


   E   E   E   E   E   E   E   E     E  E  E  E  E  E  E  E   
----------------------------------|--------------------------|
----------------------------------|--------------------------|
----------------------------------|--------------------------|
----------------------------------|--------------------------|
--11--11--11--11--11--11--11--11--|--9--9--9--9--9--9--9--9--|
---9---9---9---9---9---9---9---9--|--7--7--7--7--7--7--7--7--|


  W                    W                    W                 
-------------------|--------------------|--------------------|
-------------------|--------------------|--------------------|
--9----------------|--14----------------|--13----------------|
-------------------|--------------------|--------------------|
-------------------|--------------------|--------------------|
-------------------|--------------------|--------------------|


   W                    Q    Q    Q    Q              
--------------------|-----------------------|-------||
--------------------|-----------------------|-------||
--11----------------|-----------------------|-------||
--------------------|-----------------------|-------||
--------------------|--14-------------------|-------||
--------------------|--12-------------------|-------||


                   Infested (Lindane Conspiracy)                           


                                                                  
Rhythm



              E   E   E   E   E   E   E   E     E  E  E  E  E  E  E  E   
E||-------|----------------------------------|--------------------------|
B||-------|----------------------------------|--------------------------|
G||-------|----------------------------------|--------------------------|
D||-------|----------------------------------|--------------------------|
A||-------|--14--14--14--14--14--14--14--14--|--7--7--7--7--7--7--7--7--|
E||-------|--12--12--12--12--12--12--12--12--|--5--5--5--5--5--5--5--5--|


   E   E   E   E   E   E   E   E     E  E  E  E  E  E  E  E   
----------------------------------|--------------------------|
----------------------------------|--------------------------|
----------------------------------|--------------------------|
----------------------------------|--------------------------|
--11--11--11--11--11--11--11--11--|--9--9--9--9--9--9--9--9--|
---9---9---9---9---9---9---9---9--|--7--7--7--7--7--7--7--7--|


   E   E   E   E   E   E   E   E     E  E  E  E  E  E  E  E   
----------------------------------|--------------------------|
----------------------------------|--------------------------|
----------------------------------|--------------------------|
----------------------------------|--------------------------|
--14--14--14--14--14--14--14--14--|--7--7--7--7--7--7--7--7--|
--12--12--12--12--12--12--12--12--|--5--5--5--5--5--5--5--5--|


   E   E   E   E   E   E   E   E     E  E  E  E  E  E  E  E                     
----------------------------------|--------------------------|-----|-----|-----|
----------------------------------|--------------------------|-----|-----|-----|
----------------------------------|--------------------------|-----|-----|-----|
----------------------------------|--------------------------|-----|-----|-----|
--11--11--11--11--11--11--11--11--|--9--9--9--9--9--9--9--9--|-----|-----|-----|
---9---9---9---9---9---9---9---9--|--7--7--7--7--7--7--7--7--|-----|-----|-----|


         W                   W                    W                 
-----|--------------------|-------------------|--------------------|
-----|--------------------|-------------------|--------------------|
-----|--------------------|-------------------|--------------------|
-----|--------------------|-------------------|--------------------|
-----|--14----------------|--7----------------|--11----------------|
-----|--12----------------|--5----------------|---9----------------|


  E  E  E  E  E  E  E  E      E   E   E   E   E   E   E   E   
--------------------------|----------------------------------|
--------------------------|----------------------------------|
--------------------------|----------------------------------|
--------------------------|----------------------------------|
--9--9--9--9--9--9--9--9--|--14--14--14--14--14--14--14--14--|
--7--7--7--7--7--7--7--7--|--12--12--12--12--12--12--12--12--|


  E  E  E  E  E  E  E  E      E   E   E   E   E   E   E   E   
--------------------------|----------------------------------|
--------------------------|----------------------------------|
--------------------------|----------------------------------|
--------------------------|----------------------------------|
--7--7--7--7--7--7--7--7--|--11--11--11--11--11--11--11--11--|
--5--5--5--5--5--5--5--5--|---9---9---9---9---9---9---9---9--|


  E  E  E  E  E  E  E  E      E   E   E   E   E   E   E   E   
--------------------------|----------------------------------|
--------------------------|----------------------------------|
--------------------------|----------------------------------|
--------------------------|----------------------------------|
--9--9--9--9--9--9--9--9--|--14--14--14--14--14--14--14--14--|
--7--7--7--7--7--7--7--7--|--12--12--12--12--12--12--12--12--|


  E  E  E  E  E  E  E  E      E   E   E   E   E   E   E   E   
--------------------------|----------------------------------|
--------------------------|----------------------------------|
--------------------------|----------------------------------|
--------------------------|----------------------------------|
--7--7--7--7--7--7--7--7--|--11--11--11--11--11--11--11--11--|
--5--5--5--5--5--5--5--5--|---9---9---9---9---9---9---9---9--|


  E  E  E  E  E  E  E  E                                                   
--------------------------|-----|-----|-----|-----|-----|-----|-----|-----|
--------------------------|-----|-----|-----|-----|-----|-----|-----|-----|
--------------------------|-----|-----|-----|-----|-----|-----|-----|-----|
--------------------------|-----|-----|-----|-----|-----|-----|-----|-----|
--9--9--9--9--9--9--9--9--|-----|-----|-----|-----|-----|-----|-----|-----|
--7--7--7--7--7--7--7--7--|-----|-----|-----|-----|-----|-----|-----|-----|


                                            E  E  E  E  E  E  E  E   
-----|-----|-----|-----|-----|-----|-----|--------------------------|
-----|-----|-----|-----|-----|-----|-----|--------------------------|
-----|-----|-----|-----|-----|-----|-----|--------------------------|
-----|-----|-----|-----|-----|-----|-----|--------------------------|
-----|-----|-----|-----|-----|-----|-----|--9--9--9--9--9--9--9--9--|
-----|-----|-----|-----|-----|-----|-----|--7--7--7--7--7--7--7--7--|


   E   E   E   E   E   E   E   E     E  E  E  E  E  E  E  E   
----------------------------------|--------------------------|
----------------------------------|--------------------------|
----------------------------------|--------------------------|
----------------------------------|--------------------------|
--14--14--14--14--14--14--14--14--|--7--7--7--7--7--7--7--7--|
--12--12--12--12--12--12--12--12--|--5--5--5--5--5--5--5--5--|


   E   E   E   E   E   E   E   E     E  E  E  E  E  E  E  E   
----------------------------------|--------------------------|
----------------------------------|--------------------------|
----------------------------------|--------------------------|
----------------------------------|--------------------------|
--11--11--11--11--11--11--11--11--|--9--9--9--9--9--9--9--9--|
---9---9---9---9---9---9---9---9--|--7--7--7--7--7--7--7--7--|


   E   E   E   E   E   E   E   E     E  E  E  E  E  E  E  E   
----------------------------------|--------------------------|
----------------------------------|--------------------------|
----------------------------------|--------------------------|
----------------------------------|--------------------------|
--14--14--14--14--14--14--14--14--|--7--7--7--7--7--7--7--7--|
--12--12--12--12--12--12--12--12--|--5--5--5--5--5--5--5--5--|


   E   E   E   E   E   E   E   E     E  E  E  E  E  E  E  E                     
----------------------------------|--------------------------|-----|-----|-----|
----------------------------------|--------------------------|-----|-----|-----|
----------------------------------|--------------------------|-----|-----|-----|
----------------------------------|--------------------------|-----|-----|-----|
--11--11--11--11--11--11--11--11--|--9--9--9--9--9--9--9--9--|-----|-----|-----|
---9---9---9---9---9---9---9---9--|--7--7--7--7--7--7--7--7--|-----|-----|-----|


-----|-----|-----|-----|-----|-----|-----|-----|-----|
-----|-----|-----|-----|-----|-----|-----|-----|-----|
-----|-----|-----|-----|-----|-----|-----|-----|-----|
-----|-----|-----|-----|-----|-----|-----|-----|-----|
-----|-----|-----|-----|-----|-----|-----|-----|-----|
-----|-----|-----|-----|-----|-----|-----|-----|-----|


  E   E   E  Q    Q    E     E  E  E  Q    Q    E   
--------------------------|------------------------|
--------------------------|------------------------|
--------------------------|------------------------|
--------------------------|------------------------|
-----14--14---------------|-----7--7---------------|
-----12--12---------------|-----5--5---------------|


   E   E  Q     E   E  Q       E  E  E  E  E  E  E  E   
----------------------------|--------------------------|
----------------------------|--------------------------|
----------------------------|--------------------------|
----------------------------|--------------------------|
--11--11-------11--11-------|--9--9--9--9--9--9--9--9--|
---9---9--------9---9-------|--7--7--7--7--7--7--7--7--|


   E   E   E   E   E   E   E   E     E  E  E  E  E  E  E  E   
----------------------------------|--------------------------|
----------------------------------|--------------------------|
----------------------------------|--------------------------|
----------------------------------|--------------------------|
--14--14--14--14--14--14--14--14--|--7--7--7--7--7--7--7--7--|
--12--12--12--12--12--12--12--12--|--5--5--5--5--5--5--5--5--|


   E   E   E   E   E   E   E   E     E  E  E  E  E  E  E  E   
----------------------------------|--------------------------|
----------------------------------|--------------------------|
----------------------------------|--------------------------|
----------------------------------|--------------------------|
--11--11--11--11--11--11--11--11--|--9--9--9--9--9--9--9--9--|
---9---9---9---9---9---9---9---9--|--7--7--7--7--7--7--7--7--|


   E   E   E   E   E   E   E   E     E  E  E  E  E  E  E  E   
----------------------------------|--------------------------|
----------------------------------|--------------------------|
----------------------------------|--------------------------|
----------------------------------|--------------------------|
--14--14--14--14--14--14--14--14--|--7--7--7--7--7--7--7--7--|
--12--12--12--12--12--12--12--12--|--5--5--5--5--5--5--5--5--|


   E   E   E   E   E   E   E   E     E  E  E  E  E  E  E  E                     
----------------------------------|--------------------------|-----|-----|-----|
----------------------------------|--------------------------|-----|-----|-----|
----------------------------------|--------------------------|-----|-----|-----|
----------------------------------|--------------------------|-----|-----|-----|
--11--11--11--11--11--11--11--11--|--9--9--9--9--9--9--9--9--|-----|-----|-----|
---9---9---9---9---9---9---9---9--|--7--7--7--7--7--7--7--7--|-----|-----|-----|


        E  E  E  E  E  E  E  E     E  E  E  E  E  E  E  E   
-----|--------------------------|--------------------------|
-----|--------------------------|--------------------------|
-----|--------------------------|--------------------------|
-----|--6--6--6--6--6--6--6--6--|--6--6--6--6--6--6--6--6--|
-----|--------------------------|--------------------------|
-----|--------------------------|--------------------------|


  E  E  E  E  E  E  E  E     E  E  E  E  E  E  Q     
--------------------------|-------------------------|
--------------------------|-------------------------|
--------------------------|-------------------------|
--6--6--6--6--6--6--6--6--|--6--6--6--6--6--6-------|
--------------------------|-------------------------|
--------------------------|-------------------------|


  E  E   E  E  E   E  E  E      E  E  E   E  E  E   E  E   
----------------------------|--12-------------------------|
--------10--------12--------|------------12--------10-----|
----------------------------|-----------------------------|
----------------------------|-----------------------------|
----------------------------|-----------------------------|
----------------------------|-----------------------------|


  E  E   E  E  E   E  E  E      W                                               
----------------------------|--12----------------|-----|-----|-----|-----|-----|
--------10--------12--------|--------------------|-----|-----|-----|-----|-----|
----------------------------|--------------------|-----|-----|-----|-----|-----|
----------------------------|--------------------|-----|-----|-----|-----|-----|
----------------------------|--------------------|-----|-----|-----|-----|-----|
----------------------------|--------------------|-----|-----|-----|-----|-----|


-----|-----|-----|-----|-----|-----|-----|-----|-----|-----|-----|
-----|-----|-----|-----|-----|-----|-----|-----|-----|-----|-----|
-----|-----|-----|-----|-----|-----|-----|-----|-----|-----|-----|
-----|-----|-----|-----|-----|-----|-----|-----|-----|-----|-----|
-----|-----|-----|-----|-----|-----|-----|-----|-----|-----|-----|
-----|-----|-----|-----|-----|-----|-----|-----|-----|-----|-----|


   E   E   E   E   H           E  E  E  E  H           E  E  E  E   H         
----------------------------|-----------------------|------------------------|
----------------------------|-----------------------|------------------------|
----------------------------|-----------------------|------------------------|
----------------------------|-----------------------|------------------------|
------------------14--------|--------------7--------|--------------11--------|
--12--12--12--12--12--------|--5--5--5--5--5--------|--9--9--9--9---9--------|


  E  E  Q    E  E  Q        E   E   E   E   H           E  E  E  E  H         
------------------------|----------------------------|-----------------------|
------------------------|----------------------------|-----------------------|
------------------------|----------------------------|-----------------------|
------------------------|----------------------------|-----------------------|
--------9----------9----|------------------14--------|--------------7--------|
--7--7--7----7--7--7----|--12--12--12--12--12--------|--5--5--5--5--5--------|


  E  E  E  E   H           E  E  E  E  E  E  E  E   
------------------------|--------------------------|
------------------------|--------------------------|
------------------------|--------------------------|
------------------------|--------------------------|
--------------11--------|--9--9--9--9--9--9--9--9--|
--9--9--9--9---9--------|--7--7--7--7--7--7--7--7--|


   E   E   E   E   E   E   E   E     E  E  E  E  E  E  E  E   
----------------------------------|--------------------------|
----------------------------------|--------------------------|
----------------------------------|--------------------------|
----------------------------------|--------------------------|
--14--14--14--14--14--14--14--14--|--7--7--7--7--7--7--7--7--|
--12--12--12--12--12--12--12--12--|--5--5--5--5--5--5--5--5--|


   E   E   E   E   E   E   E   E     E  E  E  E  E  E  E  E   
----------------------------------|--------------------------|
----------------------------------|--------------------------|
----------------------------------|--------------------------|
----------------------------------|--------------------------|
--11--11--11--11--11--11--11--11--|--9--9--9--9--9--9--9--9--|
---9---9---9---9---9---9---9---9--|--7--7--7--7--7--7--7--7--|


   E   E   E   E   E   E   E   E     E  E  E  E  E  E  E  E   
----------------------------------|--------------------------|
----------------------------------|--------------------------|
----------------------------------|--------------------------|
----------------------------------|--------------------------|
--14--14--14--14--14--14--14--14--|--7--7--7--7--7--7--7--7--|
--12--12--12--12--12--12--12--12--|--5--5--5--5--5--5--5--5--|


   E   E   E   E   E   E   E   E     E  E  E  E  E  E  E  E   
----------------------------------|--------------------------|
----------------------------------|--------------------------|
----------------------------------|--------------------------|
----------------------------------|--------------------------|
--11--11--11--11--11--11--11--11--|--9--9--9--9--9--9--9--9--|
---9---9---9---9---9---9---9---9--|--7--7--7--7--7--7--7--7--|


   E   E   E   E   E   E   E   E     E  E  E  E  E  E  E  E   
----------------------------------|--------------------------|
----------------------------------|--------------------------|
----------------------------------|--------------------------|
----------------------------------|--------------------------|
--14--14--14--14--14--14--14--14--|--7--7--7--7--7--7--7--7--|
--12--12--12--12--12--12--12--12--|--5--5--5--5--5--5--5--5--|


   E   E   E   E   E   E   E   E     E  E  E  E  E  E  E  E   
----------------------------------|--------------------------|
----------------------------------|--------------------------|
----------------------------------|--------------------------|
----------------------------------|--------------------------|
--11--11--11--11--11--11--11--11--|--9--9--9--9--9--9--9--9--|
---9---9---9---9---9---9---9---9--|--7--7--7--7--7--7--7--7--|


   E   E   E   E   E   E   E   E     E  E  E  E  E  E  E  E   
----------------------------------|--------------------------|
----------------------------------|--------------------------|
----------------------------------|--------------------------|
----------------------------------|--------------------------|
--14--14--14--14--14--14--14--14--|--7--7--7--7--7--7--7--7--|
--12--12--12--12--12--12--12--12--|--5--5--5--5--5--5--5--5--|


   E   E   E   E   E   E   E   E     E  E  E  E  E  E  E  E   
----------------------------------|--------------------------|
----------------------------------|--------------------------|
----------------------------------|--------------------------|
----------------------------------|--------------------------|
--11--11--11--11--11--11--11--11--|--9--9--9--9--9--9--9--9--|
---9---9---9---9---9---9---9---9--|--7--7--7--7--7--7--7--7--|


   Q    Q    Q    Q              
-----------------------|-------||
-----------------------|-------||
-----------------------|-------||
-----------------------|-------||
--14-------------------|-------||
--12-------------------|-------||




                            2. Death Song                                    
                            by: rinio

                                                                  
Lead



     0:26                                                                
     E    S E  S S S E  S E  S S S     E   S  E   S  S  S E  S E  S S S  
E||--------------------------------|------------------------------------|
B||--------------------------------|------------------------------------|
G||--9----9-9--9-9-9-9--9-9--9-9-9-|------------------------------------|
D||--9----9-9--9-9-9-9--9-9--9-9-9-|--10--10-10--10-10-10-9--9-9--9-9-9-|
A||--7----7-7--7-7-7-7--7-7--7-7-7-|--10--10-10--10-10-10-9--9-9--9-9-9-|
E||--------------------------------|---8---8--8---8--8--8-7--7-7--7-7-7-|


  E  S E  S S S E  S E  S S S     E   S  E   S  S  S E  S E  S S S  
------------------------------|------------------------------------|
------------------------------|------------------------------------|
--9--9-9--9-9-9-9--9-9--9-9-9-|------------------------------------|
--9--9-9--9-9-9-9--9-9--9-9-9-|--10--10-10--10-10-10-9--9-9--9-9-9-|
--7--7-7--7-7-7-7--7-7--7-7-7-|--10--10-10--10-10-10-9--9-9--9-9-9-|
------------------------------|---8---8--8---8--8--8-7--7-7--7-7-7-|


  E  S E  S S S E  S E  S S S     E   S  E   S  S  S E  S E  S S S  
------------------------------|------------------------------------|
------------------------------|------------------------------------|
--9--9-9--9-9-9-9--9-9--9-9-9-|------------------------------------|
--9--9-9--9-9-9-9--9-9--9-9-9-|--10--10-10--10-10-10-9--9-9--9-9-9-|
--7--7-7--7-7-7-7--7-7--7-7-7-|--10--10-10--10-10-10-9--9-9--9-9-9-|
------------------------------|---8---8--8---8--8--8-7--7-7--7-7-7-|


  E  S E  S S S E  S E  S S S     E   S  E   S  S  S  E   S  E   S  S  S  
------------------------------|------------------------------------------|
------------------------------|------------------------------------------|
--9--9-9--9-9-9-9--9-9--9-9-9-|--12--12-12--12-12-12-14--14-14--14-14-14-|
--9--9-9--9-9-9-9--9-9--9-9-9-|------------------------------------------|
--7--7-7--7-7-7-7--7-7--7-7-7-|--10--10-10--10-10-10-12--12-12--12-12-12-|
------------------------------|------------------------------------------|


  E  Q    E  E  Q    E     E  Q    E  E  Q    E     E  Q    E  E  Q    E   
------------------------|------------------------|------------------------|
------------------------|------------------------|------------------------|
--9--9----9--9--9----9--|--9--9----9--9--9----9--|--9--9----9--9--9----9--|
--9--9----9--9--9----9--|--9--9----9--9--9----9--|--9--9----9--9--9----9--|
--7--7----7--7--7----7--|--7--7----7--7--7----7--|--7--7----7--7--7----7--|
------------------------|------------------------|------------------------|


  E  Q    E  E  Q    E     E  Q    E  E  Q    E     E  Q    E  E  Q    E   
------------------------|------------------------|------------------------|
------------------------|------------------------|------------------------|
--9--9----9--9--9----9--|--9--9----9--9--9----9--|--9--9----9--9--9----9--|
--9--9----9--9--9----9--|--9--9----9--9--9----9--|--9--9----9--9--9----9--|
--7--7----7--7--7----7--|--7--7----7--7--7----7--|--7--7----7--7--7----7--|
------------------------|------------------------|------------------------|


  E  Q    E  E  Q    E      E   Q     E   E   Q     E   
------------------------|------------------------------|
------------------------|------------------------------|
--9--9----9--9--9----9--|--12--12----12--14--14----14--|
--9--9----9--9--9----9--|------------------------------|
--7--7----7--7--7----7--|--10--10----10--12--12----12--|
------------------------|------------------------------|


  E  Q    E  E  Q    E     E  Q    E  E  Q    E     E  Q    E  E  Q    E   
------------------------|------------------------|------------------------|
------------------------|------------------------|------------------------|
------------------------|-------------5--5----5--|------------------------|
--5--5----5--7--7----7--|--2--2----2--5--5----5--|--5--5----5--7--7----7--|
--5--5----5--7--7----7--|--2--2----2--3--3----3--|--5--5----5--7--7----7--|
--3--3----3--5--5----5--|--0--0----0-------------|--3--3----3--5--5----5--|


  E  Q    E  E  Q    E     E  Q    E  E  Q    E     E  Q    E  E  Q    E   
------------------------|------------------------|------------------------|
------------------------|------------------------|------------------------|
-------------5--5----5--|------------------------|-------------5--5----5--|
--x--2----2--5--5----5--|--5--5----5--7--7----7--|--2--2----2--5--5----5--|
--x--2----2--3--3----3--|--5--5----5--7--7----7--|--2--2----2--3--3----3--|
--x--0----0-------------|--3--3----3--5--5----5--|--0--0----0-------------|


  E  Q    E  E  Q    E     E  Q    E  E  Q    E     E  Q    E  E  Q    E   
------------------------|------------------------|------------------------|
------------------------|------------------------|------------------------|
------------------------|-------------5--5----5--|--9--9----9--9--9----9--|
--5--5----5--7--7----7--|--x--2----2--5--5----5--|--9--9----9--9--9----9--|
--5--5----5--7--7----7--|--x--2----2--3--3----3--|--7--7----7--7--7----7--|
--3--3----3--5--5----5--|--x--0----0-------------|------------------------|


  E  Q    E  E  Q    E     E  Q    E  E  Q    E     E  Q    E  E  Q    E   
------------------------|------------------------|------------------------|
------------------------|------------------------|------------------------|
--9--9----9--9--9----9--|--9--9----9--9--9----9--|--9--9----9--9--9----9--|
--9--9----9--9--9----9--|--9--9----9--9--9----9--|--9--9----9--9--9----9--|
--7--7----7--7--7----7--|--7--7----7--7--7----7--|--7--7----7--7--7----7--|
------------------------|------------------------|------------------------|


  E  Q    E  E  Q    E     E  Q    E  E  Q    E     E  Q    E  E  Q    E   
------------------------|------------------------|------------------------|
------------------------|------------------------|------------------------|
--9--9----9--9--9----9--|--9--9----9--9--9----9--|--9--9----9--9--9----9--|
--9--9----9--9--9----9--|--9--9----9--9--9----9--|--9--9----9--9--9----9--|
--7--7----7--7--7----7--|--7--7----7--7--7----7--|--7--7----7--7--7----7--|
------------------------|------------------------|------------------------|


  E  Q    E  E  Q    E     E  Q    E  E  Q    E     E  Q    E  E  Q    E   
------------------------|------------------------|------------------------|
------------------------|------------------------|------------------------|
--9--9----9--9--9----9--|--9--9----9--9--9----9--|--9--9----9--9--9----9--|
--9--9----9--9--9----9--|--9--9----9--9--9----9--|--9--9----9--9--9----9--|
--7--7----7--7--7----7--|--7--7----7--7--7----7--|--7--7----7--7--7----7--|
------------------------|------------------------|------------------------|


  E  Q    E  E  Q    E      E   Q     E   E   Q     E   
------------------------|------------------------------|
------------------------|------------------------------|
--9--9----9--9--9----9--|--12--12----12--14--14----14--|
--9--9----9--9--9----9--|------------------------------|
--7--7----7--7--7----7--|--10--10----10--12--12----12--|
------------------------|------------------------------|


  E  Q    E  E  Q    E     E  Q    E  E  Q    E     E  Q    E  E  Q    E   
------------------------|------------------------|------------------------|
------------------------|------------------------|------------------------|
------------------------|-------------5--5----5--|------------------------|
--5--5----5--7--7----7--|--2--2----2--5--5----5--|--5--5----5--7--7----7--|
--5--5----5--7--7----7--|--2--2----2--3--3----3--|--5--5----5--7--7----7--|
--3--3----3--5--5----5--|--0--0----0-------------|--3--3----3--5--5----5--|


  E  Q    E  E  Q    E     E  Q    E  E  Q    E     E  Q    E  E  Q    E   
------------------------|------------------------|------------------------|
------------------------|------------------------|------------------------|
-------------5--5----5--|------------------------|-------------5--5----5--|
--x--2----2--5--5----5--|--5--5----5--7--7----7--|--2--2----2--5--5----5--|
--x--2----2--3--3----3--|--5--5----5--7--7----7--|--2--2----2--3--3----3--|
--x--0----0-------------|--3--3----3--5--5----5--|--0--0----0-------------|


  E  Q    E  E  Q    E     E  Q    E  E  Q    E     E  Q    E  E  Q    E   
------------------------|------------------------|------------------------|
------------------------|------------------------|------------------------|
------------------------|-------------5--5----5--|--9--9----9--9--9----9--|
--5--5----5--7--7----7--|--x--2----2--5--5----5--|--9--9----9--9--9----9--|
--5--5----5--7--7----7--|--x--2----2--3--3----3--|--7--7----7--7--7----7--|
--3--3----3--5--5----5--|--x--0----0-------------|------------------------|


  E  Q    E  E  Q    E     E  Q    E  E  Q    E     E  Q    E  E  Q    E   
------------------------|------------------------|------------------------|
------------------------|------------------------|------------------------|
--9--9----9--9--9----9--|--9--9----9--9--9----9--|--9--9----9--9--9----9--|
--9--9----9--9--9----9--|--9--9----9--9--9----9--|--9--9----9--9--9----9--|
--7--7----7--7--7----7--|--7--7----7--7--7----7--|--7--7----7--7--7----7--|
------------------------|------------------------|------------------------|


  E  Q    E  E  Q    E     E  Q    E  E  Q    E     E  Q    E  E  Q    E   
------------------------|------------------------|------------------------|
------------------------|------------------------|------------------------|
--9--9----9--9--9----9--|--9--9----9--9--9----9--|--9--9----9--9--9----9--|
--9--9----9--9--9----9--|--9--9----9--9--9----9--|--9--9----9--9--9----9--|
--7--7----7--7--7----7--|--7--7----7--7--7----7--|--7--7----7--7--7----7--|
------------------------|------------------------|------------------------|


   E   Q     E   E   Q     E     E  Q    E  E  Q    E   
------------------------------|------------------------|
------------------------------|------------------------|
--12--12----12--14--14----14--|------------------------|
------------------------------|--5--5----5--7--7----7--|
--10--10----10--12--12----12--|--5--5----5--7--7----7--|
------------------------------|--3--3----3--5--5----5--|


  E  Q    E  E  Q    E     E  Q    E  E  Q    E     E  Q    E  E  Q    E   
------------------------|------------------------|------------------------|
------------------------|------------------------|------------------------|
-------------5--5----5--|------------------------|-------------5--5----5--|
--2--2----2--5--5----5--|--5--5----5--7--7----7--|--x--2----2--5--5----5--|
--2--2----2--3--3----3--|--5--5----5--7--7----7--|--x--2----2--3--3----3--|
--0--0----0-------------|--3--3----3--5--5----5--|--x--0----0-------------|


  E  Q    E  E  Q    E     E  Q    E  E  Q    E     E  Q    E  E  Q    E   
------------------------|------------------------|------------------------|
------------------------|------------------------|------------------------|
------------------------|-------------5--5----5--|------------------------|
--5--5----5--7--7----7--|--2--2----2--5--5----5--|--5--5----5--7--7----7--|
--5--5----5--7--7----7--|--2--2----2--3--3----3--|--5--5----5--7--7----7--|
--3--3----3--5--5----5--|--0--0----0-------------|--3--3----3--5--5----5--|


  E  Q    E  E  Q    E     E  Q    E  E  Q    E     E  Q    E  E  Q    E   
------------------------|------------------------|------------------------|
------------------------|------------------------|------------------------|
-------------5--5----5--|--9--9----9--9--9----9--|--9--9----9--9--9----9--|
--x--2----2--5--5----5--|--9--9----9--9--9----9--|--9--9----9--9--9----9--|
--x--2----2--3--3----3--|--7--7----7--7--7----7--|--7--7----7--7--7----7--|
--x--0----0-------------|------------------------|------------------------|


  W                   W                   E  Q    E  E  Q    E   
-------------------|-------------------|------------------------|
-------------------|-------------------|------------------------|
--9----------------|--9----------------|--9--9----9--9--9----9--|
--9----------------|--9----------------|--9--9----9--9--9----9--|
--7----------------|--7----------------|--7--7----7--7--7----7--|
-------------------|-------------------|------------------------|


  E  Q    E  E  Q    E     W                   W                 
------------------------|-------------------|-------------------|
------------------------|-------------------|-------------------|
--9--9----9--9--9----9--|--9----------------|--9----------------|
--9--9----9--9--9----9--|--9----------------|--9----------------|
--7--7----7--7--7----7--|--7----------------|--7----------------|
------------------------|-------------------|-------------------|


  E  Q    E  E  Q    E     E  Q    E  E  Q    E     E  Q    E  E  Q    E   
------------------------|------------------------|------------------------|
------------------------|------------------------|------------------------|
--9--9----9--9--9----9--|--9--9----9--9--9----9--|--9--9----9--9--9----9--|
--9--9----9--9--9----9--|--9--9----9--9--9----9--|--9--9----9--9--9----9--|
--7--7----7--7--7----7--|--7--7----7--7--7----7--|--7--7----7--7--7----7--|
------------------------|------------------------|------------------------|


  E  Q    E  E  Q    E     E  Q    E  E  Q    E     E  Q    E  E  Q    E   
------------------------|------------------------|------------------------|
------------------------|------------------------|------------------------|
--9--9----9--9--9----9--|--9--9----9--9--9----9--|--9--9----9--9--9----9--|
--9--9----9--9--9----9--|--9--9----9--9--9----9--|--9--9----9--9--9----9--|
--7--7----7--7--7----7--|--7--7----7--7--7----7--|--7--7----7--7--7----7--|
------------------------|------------------------|------------------------|


  E  Q    E  E  Q    E     E  Q    E  E  Q    E     E  Q    E  E  Q    E   
------------------------|------------------------|------------------------|
------------------------|------------------------|------------------------|
--9--9----9--9--9----9--|--9--9----9--9--9----9--|------------------------|
--9--9----9--9--9----9--|--9--9----9--9--9----9--|--5--5----5--7--7----7--|
--7--7----7--7--7----7--|--7--7----7--7--7----7--|--5--5----5--7--7----7--|
------------------------|------------------------|--3--3----3--5--5----5--|


  E  Q    E  E  Q    E     E  Q    E  E  Q    E     E  Q    E  E  Q    E   
------------------------|------------------------|------------------------|
------------------------|------------------------|------------------------|
-------------5--5----5--|------------------------|-------------5--5----5--|
--2--2----2--5--5----5--|--5--5----5--7--7----7--|--x--2----2--5--5----5--|
--2--2----2--3--3----3--|--5--5----5--7--7----7--|--x--2----2--3--3----3--|
--0--0----0-------------|--3--3----3--5--5----5--|--x--0----0-------------|


  E  Q    E  E  Q    E     E  Q    E  E  Q    E     E  Q    E  E  Q    E   
------------------------|------------------------|------------------------|
------------------------|------------------------|------------------------|
------------------------|-------------5--5----5--|------------------------|
--5--5----5--7--7----7--|--2--2----2--5--5----5--|--5--5----5--7--7----7--|
--5--5----5--7--7----7--|--2--2----2--3--3----3--|--5--5----5--7--7----7--|
--3--3----3--5--5----5--|--0--0----0-------------|--3--3----3--5--5----5--|


  E  Q    E  E  Q    E     E  Q    E  E  Q    E     E  Q    E  E  Q    E   
------------------------|------------------------|------------------------|
------------------------|------------------------|------------------------|
-------------5--5----5--|------------------------|-------------5--5----5--|
--x--2----2--5--5----5--|--5--5----5--7--7----7--|--2--2----2--5--5----5--|
--x--2----2--3--3----3--|--5--5----5--7--7----7--|--2--2----2--3--3----3--|
--x--0----0-------------|--3--3----3--5--5----5--|--0--0----0-------------|


  E  Q    E  E  Q    E     E  Q    E  E  Q    E     E  Q    E  E  Q    E   
------------------------|------------------------|------------------------|
------------------------|------------------------|------------------------|
------------------------|-------------5--5----5--|------------------------|
--5--5----5--7--7----7--|--x--2----2--5--5----5--|--5--5----5--7--7----7--|
--5--5----5--7--7----7--|--x--2----2--3--3----3--|--5--5----5--7--7----7--|
--3--3----3--5--5----5--|--x--0----0-------------|--3--3----3--5--5----5--|


  E  Q    E  E  Q    E     E  Q    E  E  Q    E     E  Q    E  E  Q    E   
------------------------|------------------------|------------------------|
------------------------|------------------------|------------------------|
-------------5--5----5--|------------------------|-------------5--5----5--|
--2--2----2--5--5----5--|--5--5----5--7--7----7--|--x--2----2--5--5----5--|
--2--2----2--3--3----3--|--5--5----5--7--7----7--|--x--2----2--3--3----3--|
--0--0----0-------------|--3--3----3--5--5----5--|--x--0----0-------------|


  Q      
-------||
-------||
-------||
--5----||
--5----||
--3----||



                                                                
Rhythm



                     W                    W                   W                 
E||-------|-------|-------------------|--------------------|-------------------|
B||-------|-------|-------------------|--------------------|-------------------|
G||-------|-------|-------------------|--------------------|-------------------|
D||-------|-------|--2----------------|---L----------------|--2----------------|
A||-------|-------|--2----------------|---L----------------|--2----------------|
E||-------|-------|--0----------------|---L----------------|--0----------------|


   W                   W                 
--------------------|-------------------|
--------------------|-------------------|
--------------------|-------------------|
---L----------------|--2----------------|
---L----------------|--2----------------|
---L----------------|--0----------------|


   H         X  X  X  X  X  X  X  X  X  X  X  X  X  X  X  X  X  X  X  X  X X X X
------------30-29-28-27-26-25-24-23-22-21-20-19-18-17-16-15-14-13-12-11-10-9-8-7
--------------------------------------------------------------------------------
--------------------------------------------------------------------------------
---L----------------------------------------------------------------------------
---L----------------------------------------------------------------------------
---L----------------------------------------------------------------------------


  E  Q    E  E  Q    E     E  Q    E  E  Q    E     E  Q    E  E  Q    E   
------------------------|------------------------|------------------------|
------------------------|------------------------|------------------------|
--9--9----9--9--9----9--|--9--9----9--9--9----9--|--9--9----9--9--9----9--|
--9--9----9--9--9----9--|--9--9----9--9--9----9--|--9--9----9--9--9----9--|
--7--7----7--7--7----7--|--7--7----7--7--7----7--|--7--7----7--7--7----7--|
------------------------|------------------------|------------------------|


  E  Q    E  E  Q    E     E  Q    E  E  Q    E     E  Q    E  E  Q    E   
------------------------|------------------------|------------------------|
------------------------|------------------------|------------------------|
--9--9----9--9--9----9--|--9--9----9--9--9----9--|--9--9----9--9--9----9--|
--9--9----9--9--9----9--|--9--9----9--9--9----9--|--9--9----9--9--9----9--|
--7--7----7--7--7----7--|--7--7----7--7--7----7--|--7--7----7--7--7----7--|
------------------------|------------------------|------------------------|


  E  Q    E  E  Q    E      E   Q     E   E   Q     E   
------------------------|------------------------------|
------------------------|------------------------------|
--9--9----9--9--9----9--|--12--12----12--14--14----14--|
--9--9----9--9--9----9--|------------------------------|
--7--7----7--7--7----7--|--10--10----10--12--12----12--|
------------------------|------------------------------|


  E  Q    E  E  Q    E     E  Q    E  E  Q    E     E  Q    E  E  Q    E   
------------------------|------------------------|------------------------|
------------------------|------------------------|------------------------|
------------------------|-------------5--5----5--|------------------------|
--5--5----5--7--7----7--|--2--2----2--5--5----5--|--5--5----5--7--7----7--|
--5--5----5--7--7----7--|--2--2----2--3--3----3--|--5--5----5--7--7----7--|
--3--3----3--5--5----5--|--0--0----0-------------|--3--3----3--5--5----5--|


  E  Q    E  E  Q    E     E  Q    E  E  Q    E     E  Q    E  E  Q    E   
------------------------|------------------------|------------------------|
------------------------|------------------------|------------------------|
-------------5--5----5--|------------------------|-------------5--5----5--|
--x--2----2--5--5----5--|--5--5----5--7--7----7--|--2--2----2--5--5----5--|
--x--2----2--3--3----3--|--5--5----5--7--7----7--|--2--2----2--3--3----3--|
--x--0----0-------------|--3--3----3--5--5----5--|--0--0----0-------------|


  E  Q    E  E  Q    E     E  Q    E  E  Q    E     E  Q    E  E  Q    E   
------------------------|------------------------|------------------------|
------------------------|------------------------|------------------------|
------------------------|-------------5--5----5--|--9--9----9--9--9----9--|
--5--5----5--7--7----7--|--x--2----2--5--5----5--|--9--9----9--9--9----9--|
--5--5----5--7--7----7--|--x--2----2--3--3----3--|--7--7----7--7--7----7--|
--3--3----3--5--5----5--|--x--0----0-------------|------------------------|


  E  Q    E  E  Q    E     E  Q    E  E  Q    E     E  Q    E  E  Q    E   
------------------------|------------------------|------------------------|
------------------------|------------------------|------------------------|
--9--9----9--9--9----9--|--9--9----9--9--9----9--|--9--9----9--9--9----9--|
--9--9----9--9--9----9--|--9--9----9--9--9----9--|--9--9----9--9--9----9--|
--7--7----7--7--7----7--|--7--7----7--7--7----7--|--7--7----7--7--7----7--|
------------------------|------------------------|------------------------|


  E  Q    E  E  Q    E     E  Q    E  E  Q    E     E  Q    E  E  Q    E   
------------------------|------------------------|------------------------|
------------------------|------------------------|------------------------|
--9--9----9--9--9----9--|--9--9----9--9--9----9--|--9--9----9--9--9----9--|
--9--9----9--9--9----9--|--9--9----9--9--9----9--|--9--9----9--9--9----9--|
--7--7----7--7--7----7--|--7--7----7--7--7----7--|--7--7----7--7--7----7--|
------------------------|------------------------|------------------------|


  E  Q    E  E  Q    E     E  Q    E  E  Q    E     E  Q    E  E  Q    E   
------------------------|------------------------|------------------------|
------------------------|------------------------|------------------------|
--9--9----9--9--9----9--|--9--9----9--9--9----9--|--9--9----9--9--9----9--|
--9--9----9--9--9----9--|--9--9----9--9--9----9--|--9--9----9--9--9----9--|
--7--7----7--7--7----7--|--7--7----7--7--7----7--|--7--7----7--7--7----7--|
------------------------|------------------------|------------------------|


  E  Q    E  E  Q    E      E   Q     E   E   Q     E   
------------------------|------------------------------|
------------------------|------------------------------|
--9--9----9--9--9----9--|--12--12----12--14--14----14--|
--9--9----9--9--9----9--|------------------------------|
--7--7----7--7--7----7--|--10--10----10--12--12----12--|
------------------------|------------------------------|


  E  Q    E  E  Q    E     E  Q    E  E  Q    E     E  Q    E  E  Q    E   
------------------------|------------------------|------------------------|
------------------------|------------------------|------------------------|
------------------------|-------------5--5----5--|------------------------|
--5--5----5--7--7----7--|--2--2----2--5--5----5--|--5--5----5--7--7----7--|
--5--5----5--7--7----7--|--2--2----2--3--3----3--|--5--5----5--7--7----7--|
--3--3----3--5--5----5--|--0--0----0-------------|--3--3----3--5--5----5--|


  E  Q    E  E  Q    E     E  Q    E  E  Q    E     E  Q    E  E  Q    E   
------------------------|------------------------|------------------------|
------------------------|------------------------|------------------------|
-------------5--5----5--|------------------------|-------------5--5----5--|
--x--2----2--5--5----5--|--5--5----5--7--7----7--|--2--2----2--5--5----5--|
--x--2----2--3--3----3--|--5--5----5--7--7----7--|--2--2----2--3--3----3--|
--x--0----0-------------|--3--3----3--5--5----5--|--0--0----0-------------|


  E  Q    E  E  Q    E     E  Q    E  E  Q    E     E  Q    E  E  Q    E   
------------------------|------------------------|------------------------|
------------------------|------------------------|------------------------|
------------------------|-------------5--5----5--|--9--9----9--9--9----9--|
--5--5----5--7--7----7--|--x--2----2--5--5----5--|--9--9----9--9--9----9--|
--5--5----5--7--7----7--|--x--2----2--3--3----3--|--7--7----7--7--7----7--|
--3--3----3--5--5----5--|--x--0----0-------------|------------------------|


  E  Q    E  E  Q    E     E  Q    E  E  Q    E     E  Q    E  E  Q    E   
------------------------|------------------------|------------------------|
------------------------|------------------------|------------------------|
--9--9----9--9--9----9--|--9--9----9--9--9----9--|--9--9----9--9--9----9--|
--9--9----9--9--9----9--|--9--9----9--9--9----9--|--9--9----9--9--9----9--|
--7--7----7--7--7----7--|--7--7----7--7--7----7--|--7--7----7--7--7----7--|
------------------------|------------------------|------------------------|


  E  Q    E  E  Q    E     E  Q    E  E  Q    E     E  Q    E  E  Q    E   
------------------------|------------------------|------------------------|
------------------------|------------------------|------------------------|
--9--9----9--9--9----9--|--9--9----9--9--9----9--|--9--9----9--9--9----9--|
--9--9----9--9--9----9--|--9--9----9--9--9----9--|--9--9----9--9--9----9--|
--7--7----7--7--7----7--|--7--7----7--7--7----7--|--7--7----7--7--7----7--|
------------------------|------------------------|------------------------|


   E   Q     E   E   Q     E     E  Q    E  E  Q    E   
------------------------------|------------------------|
------------------------------|------------------------|
--12--12----12--14--14----14--|------------------------|
------------------------------|--5--5----5--7--7----7--|
--10--10----10--12--12----12--|--5--5----5--7--7----7--|
------------------------------|--3--3----3--5--5----5--|


  E  Q    E  E  Q    E     E  Q    E  E  Q    E     E  Q    E  E  Q    E   
------------------------|------------------------|------------------------|
------------------------|------------------------|------------------------|
-------------5--5----5--|------------------------|-------------5--5----5--|
--2--2----2--5--5----5--|--5--5----5--7--7----7--|--x--2----2--5--5----5--|
--2--2----2--3--3----3--|--5--5----5--7--7----7--|--x--2----2--3--3----3--|
--0--0----0-------------|--3--3----3--5--5----5--|--x--0----0-------------|


  E  Q    E  E  Q    E     E  Q    E  E  Q    E     E  Q    E  E  Q    E   
------------------------|------------------------|------------------------|
------------------------|------------------------|------------------------|
------------------------|-------------5--5----5--|------------------------|
--5--5----5--7--7----7--|--2--2----2--5--5----5--|--5--5----5--7--7----7--|
--5--5----5--7--7----7--|--2--2----2--3--3----3--|--5--5----5--7--7----7--|
--3--3----3--5--5----5--|--0--0----0-------------|--3--3----3--5--5----5--|


  E  Q    E  E  Q    E     E  Q    E  E  Q    E     E  Q    E  E  Q    E   
------------------------|------------------------|------------------------|
------------------------|------------------------|------------------------|
-------------5--5----5--|--9--9----9--9--9----9--|--9--9----9--9--9----9--|
--x--2----2--5--5----5--|--9--9----9--9--9----9--|--9--9----9--9--9----9--|
--x--2----2--3--3----3--|--7--7----7--7--7----7--|--7--7----7--7--7----7--|
--x--0----0-------------|------------------------|------------------------|


  W                   W                   E  Q    E  E  Q    E   
-------------------|-------------------|------------------------|
-------------------|-------------------|------------------------|
--9----------------|--9----------------|--9--9----9--9--9----9--|
--9----------------|--9----------------|--9--9----9--9--9----9--|
--7----------------|--7----------------|--7--7----7--7--7----7--|
-------------------|-------------------|------------------------|


  E  Q    E  E  Q    E     W                   W                 
------------------------|-------------------|-------------------|
------------------------|-------------------|-------------------|
--9--9----9--9--9----9--|--9----------------|--9----------------|
--9--9----9--9--9----9--|--9----------------|--9----------------|
--7--7----7--7--7----7--|--7----------------|--7----------------|
------------------------|-------------------|-------------------|


                                                  |-----3-----|     
  E  S S S S S S E  S S S S S S    E  S S S S S S Q     Q     Q     
--------------------------------|----------------------------------|
--------------------------------|----------------------------------|
--9--9-9-9-9-9-9-9--9-9-9-9-9-9-|--9--9-9-9-9-9-9-9----11----12----|
--------------------------------|----------------------------------|
--------------------------------|----------------------------------|
--------------------------------|----------------------------------|


   |-----3-----|     |-----3----|       |----3----|    |-----3-----|     
   Q     Q     Q     Q     Q    Q       Q    Q    Q    Q     Q     Q     
-------------------------------------|----------------------------------|
-------------------------------------|----------------------------------|
--------------------------------9----|----------------------------------|
--10----10----10----10----12---------|--9----9----9----9----10----12----|
-------------------------------------|----------------------------------|
-------------------------------------|----------------------------------|


                                                  |-----3-----|     
  E  S S S S S S E  S S S S S S    E  S S S S S S Q     Q     Q     
--------------------------------|----------------------------------|
--------------------------------|----------------------------------|
--9--9-9-9-9-9-9-9--9-9-9-9-9-9-|--9--9-9-9-9-9-9-9----11----12----|
--------------------------------|----------------------------------|
--------------------------------|----------------------------------|
--------------------------------|----------------------------------|


   |-----3-----|     |-----3-----|                                 
   Q     Q     Q     Q     Q     Q        Q     Q     Q     Q      
--------------------------------------|---------------------------|
--------------------------------------|---------------------------|
--14----12----11----14----12----11----|--17----16----14-----------|
--------------------------------------|---------------------------|
--------------------------------------|--------------------17\----|
--------------------------------------|--------------------17\----|


  E  Q    E  E  Q    E     E  Q    E  E  Q    E     E  Q    E  E  Q    E   
------------------------|------------------------|------------------------|
------------------------|------------------------|------------------------|
------------------------|-------------5--5----5--|------------------------|
--5--5----5--7--7----7--|--2--2----2--5--5----5--|--5--5----5--7--7----7--|
--5--5----5--7--7----7--|--2--2----2--3--3----3--|--5--5----5--7--7----7--|
--3--3----3--5--5----5--|--0--0----0-------------|--3--3----3--5--5----5--|


  E  Q    E  E  Q    E     E  Q    E  E  Q    E     E  Q    E  E  Q    E   
------------------------|------------------------|------------------------|
------------------------|------------------------|------------------------|
-------------5--5----5--|------------------------|-------------5--5----5--|
--x--2----2--5--5----5--|--5--5----5--7--7----7--|--2--2----2--5--5----5--|
--x--2----2--3--3----3--|--5--5----5--7--7----7--|--2--2----2--3--3----3--|
--x--0----0-------------|--3--3----3--5--5----5--|--0--0----0-------------|


  E  Q    E  E  Q    E     E  Q    E  E  Q    E     E  Q    E  E  Q    E   
------------------------|------------------------|------------------------|
------------------------|------------------------|------------------------|
------------------------|-------------5--5----5--|------------------------|
--5--5----5--7--7----7--|--x--2----2--5--5----5--|--5--5----5--7--7----7--|
--5--5----5--7--7----7--|--x--2----2--3--3----3--|--5--5----5--7--7----7--|
--3--3----3--5--5----5--|--x--0----0-------------|--3--3----3--5--5----5--|


  E  Q    E  E  Q    E     E  Q    E  E  Q    E     E  Q    E  E  Q    E   
------------------------|------------------------|------------------------|
------------------------|------------------------|------------------------|
-------------5--5----5--|------------------------|-------------5--5----5--|
--2--2----2--5--5----5--|--5--5----5--7--7----7--|--x--2----2--5--5----5--|
--2--2----2--3--3----3--|--5--5----5--7--7----7--|--x--2----2--3--3----3--|
--0--0----0-------------|--3--3----3--5--5----5--|--x--0----0-------------|


  E  Q    E  E  Q    E     E  Q    E  E  Q    E     E  Q    E  E  Q    E   
------------------------|------------------------|------------------------|
------------------------|------------------------|------------------------|
------------------------|-------------5--5----5--|------------------------|
--5--5----5--7--7----7--|--2--2----2--5--5----5--|--5--5----5--7--7----7--|
--5--5----5--7--7----7--|--2--2----2--3--3----3--|--5--5----5--7--7----7--|
--3--3----3--5--5----5--|--0--0----0-------------|--3--3----3--5--5----5--|


  E  Q    E  E  Q    E     Q      
------------------------|-------||
------------------------|-------||
-------------5--5----5--|-------||
--x--2----2--5--5----5--|--5----||
--x--2----2--3--3----3--|--5----||
--x--0----0-------------|--3----||


                          3. Born To die                                   
                          by: rinio
                         
Guitar 1



E||-------|-------|-------|-------|-------|-------|-------|-------|-------|
B||-------|-------|-------|-------|-------|-------|-------|-------|-------|
G||-------|-------|-------|-------|-------|-------|-------|-------|-------|
D||-------|-------|-------|-------|-------|-------|-------|-------|-------|
A||-------|-------|-------|-------|-------|-------|-------|-------|-------|
E||-------|-------|-------|-------|-------|-------|-------|-------|-------|


-------|-------|-------|-------|-------|-------|-------|-------|-------|-------|
-------|-------|-------|-------|-------|-------|-------|-------|-------|-------|
-------|-------|-------|-------|-------|-------|-------|-------|-------|-------|
-------|-------|-------|-------|-------|-------|-------|-------|-------|-------|
-------|-------|-------|-------|-------|-------|-------|-------|-------|-------|
-------|-------|-------|-------|-------|-------|-------|-------|-------|-------|


  H        S S S S S S S S    S E  S S E  S S E  S S E  S  
---------------------------|------------------------------|
---------------------------|------------------------------|
-----------7-7-7-7-7-7-7-7-|----------------9-9--9-9-9--9-|
-----------7-7-7-7-7-7-7-7-|--7-7--7-7-7--7-9-9--9-9-9--9-|
-----------5-5-5-5-5-5-5-5-|--7-7--7-7-7--7-7-7--7-7-7--7-|
---------------------------|--5-5--5-5-5--5---------------|


  S S S S S S S S S S S S S S S S    S E  S S E  S S E  S S E  S  
----------------------------------|------------------------------|
----------------------------------|------------------------------|
--7-7-x-7-7-7-x-7-7-7-x-7-7-7-7-7-|----------------9-9--9-9-9--9-|
--7-7-x-7-7-7-x-7-7-7-x-7-7-7-7-7-|--7-7--7-7-7--7-9-9--9-9-9--9-|
--5-5-x-5-5-5-x-5-5-5-x-5-5-5-5-5-|--7-7--7-7-7--7-7-7--7-7-7--7-|
----------------------------------|--5-5--5-5-5--5---------------|


   S  S  S  S  S  S  S  S  S  S  S  S  S  S  S  S  
--------------------------------------------------|
--------------------------------------------------|
--11-11-11-11-11-11-11-11-11-11-11-11-11-11-11-11-|
--------------------------------------------------|
---9--9--9--9--9--9--9--9--9--9--9--9--9--9--9--9-|
--------------------------------------------------|


  S E  S S E  S S E  S S E  S    H        Q    Q     
------------------------------|---------------------|
------------------------------|---------------------|
----------------9-9--9-9-9--9-|--7--------6----4----|
--7-7--7-7-7--7-9-9--9-9-9--9-|--7--------6----4----|
--7-7--7-7-7--7-7-7--7-7-7--7-|--5--------4----2----|
--5-5--5-5-5--5---------------|---------------------|


  S E  S S E  S S E  S S E  S  
------------------------------|
------------------------------|
----------------9-9--9-9-9--9-|
--7-7--7-7-7--7-9-9--9-9-9--9-|
--7-7--7-7-7--7-7-7--7-7-7--7-|
--5-5--5-5-5--5---------------|


   S  S  S  S  S  S  S  S  S  S  S  S  S  S  S  S                          
--------------------------------------------------|-------|-------|-------|
--------------------------------------------------|-------|-------|-------|
--11-11-11-11-11-11-11-11-11-11-11-11-11-11-11-11-|-------|-------|-------|
--------------------------------------------------|-------|-------|-------|
---9--9--9--9--9--9--9--9--9--9--9--9--9--9--9--9-|-------|-------|-------|
--------------------------------------------------|-------|-------|-------|


                                  H        S S S S S S S S  
-------|-------|-------|-------|---------------------------|
-------|-------|-------|-------|---------------------------|
-------|-------|-------|-------|-----------7-7-7-7-7-7-7-7-|
-------|-------|-------|-------|-----------7-7-7-7-7-7-7-7-|
-------|-------|-------|-------|-----------5-5-5-5-5-5-5-5-|
-------|-------|-------|-------|---------------------------|


  S E  S S E  S S E  S S E  S    S S S S S S S S S S S S S S S S  
------------------------------|----------------------------------|
------------------------------|----------------------------------|
----------------9-9--9-9-9--9-|--7-7-x-7-7-7-x-7-7-7-x-7-7-7-x-x-|
--7-7--7-7-7--7-9-9--9-9-9--9-|--7-7-x-7-7-7-x-7-7-7-x-7-7-7-x-x-|
--7-7--7-7-7--7-7-7--7-7-7--7-|--5-5-x-5-5-5-x-5-5-5-x-5-5-5-x-x-|
--5-5--5-5-5--5---------------|----------------------------------|


  S E  S S E  S S E  S S E  S  
------------------------------|
------------------------------|
----------------9-9--9-9-9--9-|
--7-7--7-7-7--7-9-9--9-9-9--9-|
--7-7--7-7-7--7-7-7--7-7-7--7-|
--5-5--5-5-5--5---------------|


   S  S  S  S  S  S  S  S  S  S  S  S  S  S  S  S  
--------------------------------------------------|
--------------------------------------------------|
--11-11-11-11-11-11-11-11-11-11-11-11-11-11-11-11-|
--------------------------------------------------|
---9--9--9--9--9--9--9--9--9--9--9--9--9--9--9--9-|
--------------------------------------------------|


  S E  S S E  S S E  S S E  S                S E  S S E  S S E  S S E  S  
------------------------------|-----------|------------------------------|
------------------------------|-----------|------------------------------|
----------------9-9--9-9-9--9-|-----------|----------------9-9--9-9-9--9-|
--7-7--7-7-7--7-9-9--9-9-9--9-|-----------|--7-7--7-7-7--7-9-9--9-9-9--9-|
--7-7--7-7-7--7-7-7--7-7-7--7-|-----------|--7-7--7-7-7--7-7-7--7-7-7--7-|
--5-5--5-5-5--5---------------|-----------|--5-5--5-5-5--5---------------|


   S  S  S  S  S  S  S  S  S  S  S  S  S  S  S  S  
--------------------------------------------------|
--------------------------------------------------|
--11-11-11-11-11-11-11-11-11-11-11-11-11-11-11-11-|
--------------------------------------------------|
---9--9--9--9--9--9--9--9--9--9--9--9--9--9--9--9-|
--------------------------------------------------|


  E  S S E  S E  S S S E  E     E  S S E  S E  S S S E  E   
-----------------------------|-----------------------------|
--2--2-2-3--2-2--2-2-2-3--2--|--2--2-2-3--2-2--2-2-2-3--5--|
-----------------------------|-----------------------------|
-----------------------------|-----------------------------|
-----------------------------|-----------------------------|
-----------------------------|-----------------------------|


  E  S S E  S E  S S S E  E     E  S S E  S E  S S S E  E   
-----------------------------|-----------------------------|
--2--2-2-3--2-2--2-2-2-3--2--|--2--2-2-3--2-2--2-2-2-3--5--|
-----------------------------|-----------------------------|
-----------------------------|-----------------------------|
-----------------------------|-----------------------------|
-----------------------------|-----------------------------|


  E  S S S E.  E  S S S E.     E  S S S E.  E  E  S S E   
----------------------------|---------------2------------|
--2--2-2-3-5---2--2-2-3-5---|--2--2-2-3-5------5--3-5-3--|
----------------------------|----------------------------|
----------------------------|----------------------------|
----------------------------|----------------------------|
----------------------------|----------------------------|


                               |-3-| |-3-| |-3-| |-3-| |-3-| |-3-| |-3-| |-3-|  
  E  S S S E.  E  S S S E.     S S S S S S S S S S S S S S S S S S S S S S S S  
----------------------------|--------------------------------------------------|
--2--2-2-3-5---2--2-2-3-5---|--2-3-5-2-3-5-2-3-5-2-3-5-2-3-5-2-3-5-2-3-5-2-3-5-|
----------------------------|--------------------------------------------------|
----------------------------|--------------------------------------------------|
----------------------------|--------------------------------------------------|
----------------------------|--------------------------------------------------|


  S E  S S E  S S E  S S E  S    S S S S S S S S S S S S S S S S  
------------------------------|----------------------------------|
------------------------------|----------------------------------|
----------------9-9--9-9-9--9-|--7-7-x-7-7-7-x-7-7-7-x-7-7-7-x-x-|
--7-7--7-7-7--7-9-9--9-9-9--9-|--7-7-x-7-7-7-x-7-7-7-x-7-7-7-x-x-|
--7-7--7-7-7--7-7-7--7-7-7--7-|--5-5-x-5-5-5-x-5-5-5-x-5-5-5-x-x-|
--5-5--5-5-5--5---------------|----------------------------------|


  S E  S S E  S S E  S S E  S  
------------------------------|
------------------------------|
----------------9-9--9-9-9--9-|
--7-7--7-7-7--7-9-9--9-9-9--9-|
--7-7--7-7-7--7-7-7--7-7-7--7-|
--5-5--5-5-5--5---------------|


   S  S  S  S  S  S  S  S  S  S  S  S  S  S  S  S  
--------------------------------------------------|
--------------------------------------------------|
--11-11-11-11-11-11-11-11-11-11-11-11-11-11-11-11-|
--------------------------------------------------|
---9--9--9--9--9--9--9--9--9--9--9--9--9--9--9--9-|
--------------------------------------------------|


  S E  S S E  S S E  S S E  S                S E  S S E  S S E  S S E  S  
------------------------------|-----------|------------------------------|
------------------------------|-----------|------------------------------|
----------------9-9--9-9-9--9-|-----------|----------------9-9--9-9-9--9-|
--7-7--7-7-7--7-9-9--9-9-9--9-|-----------|--7-7--7-7-7--7-9-9--9-9-9--9-|
--7-7--7-7-7--7-7-7--7-7-7--7-|-----------|--7-7--7-7-7--7-7-7--7-7-7--7-|
--5-5--5-5-5--5---------------|-----------|--5-5--5-5-5--5---------------|


   S  S  S  S  S  S  S  S  S  S  S  S  S  S  S  S    W                 
--------------------------------------------------|-------------------|
--------------------------------------------------|-------------------|
--11-11-11-11-11-11-11-11-11-11-11-11-11-11-11-11-|-------------------|
--------------------------------------------------|--7----------------|
---9--9--9--9--9--9--9--9--9--9--9--9--9--9--9--9-|--7----------------|
--------------------------------------------------|--5----------------|


  first time in the history of the world                                        
  W                                         Q               H        E  Q.      
-----------------------------------------|-------|-------|--5--------L--5------|
-----------------------------------------|-------|-------|--5--------L--7------|
-----------------------------------------|-------|-------|--6--------L--7------|
--L--------------------------------------|--L----|-------|--7--------L--7------|
--L--------------------------------------|--L----|-------|--7--------L--5------|
--L--------------------------------------|--L----|-------|--5--------L---------|


  H        E  Q.                                      
--7--------L--5------|-------|-------|-------|-------|
--9--------L--7------|-------|-------|-------|-------|
--9--------L--7------|-------|-------|-------|-------|
--9--------L--7------|-------|-------|-------|-------|
--7--------L--5------|-------|-------|-------|-------|
---------------------|-------|-------|-------|-------|


  S E  S S E  S S E  S S E  S    S S S S S S S S S S S S S S S S  
------------------------------|----------------------------------|
------------------------------|----------------------------------|
----------------9-9--9-9-9--9-|--7-7-x-7-7-7-x-7-7-7-x-7-7-7-x-x-|
--7-7--7-7-7--7-9-9--9-9-9--9-|--7-7-x-7-7-7-x-7-7-7-x-7-7-7-x-x-|
--7-7--7-7-7--7-7-7--7-7-7--7-|--5-5-x-5-5-5-x-5-5-5-x-5-5-5-x-x-|
--5-5--5-5-5--5---------------|----------------------------------|


  S E  S S E  S S E  S S E  S  
------------------------------|
------------------------------|
----------------9-9--9-9-9--9-|
--7-7--7-7-7--7-9-9--9-9-9--9-|
--7-7--7-7-7--7-7-7--7-7-7--7-|
--5-5--5-5-5--5---------------|


   S  S  S  S  S  S  S  S  S  S  S  S  S  S  S  S  
--------------------------------------------------|
--------------------------------------------------|
--11-11-11-11-11-11-11-11-11-11-11-11-11-11-11-11-|
--------------------------------------------------|
---9--9--9--9--9--9--9--9--9--9--9--9--9--9--9--9-|
--------------------------------------------------|


  S E  S S E  S S E  S S E  S                S E  S S E  S S E  S S E  S  
------------------------------|-----------|------------------------------|
------------------------------|-----------|------------------------------|
----------------9-9--9-9-9--9-|-----------|----------------9-9--9-9-9--9-|
--7-7--7-7-7--7-9-9--9-9-9--9-|-----------|--7-7--7-7-7--7-9-9--9-9-9--9-|
--7-7--7-7-7--7-7-7--7-7-7--7-|-----------|--7-7--7-7-7--7-7-7--7-7-7--7-|
--5-5--5-5-5--5---------------|-----------|--5-5--5-5-5--5---------------|


   S  S  S  S  S  S  S  S  S  S  S  S  S  S  S  S    W                   E    
--------------------------------------------------|-------------------|-----||
--------------------------------------------------|-------------------|-----||
--11-11-11-11-11-11-11-11-11-11-11-11-11-11-11-11-|-------------------|-----||
--------------------------------------------------|--7----------------|--7--||
---9--9--9--9--9--9--9--9--9--9--9--9--9--9--9--9-|--7----------------|--7--||
--------------------------------------------------|--5----------------|--5--||





                                                          


                                                                  
Guitar 2



     w/ Chorus                        
     Q                                   E  S S S S E  E   E   
E||--5-----------------------------------5----------5--5S--7--|
B||--5-----------------------------------5----------7--7S--9--|
G||--6-----------------------------------6----------7--7S--9--|
D||--7-----------------------------------7--x-x-x-x-7--7S--9--|
A||--7-----------------------------------7--x-x-x-x-5--5S--7--|
E||--5-----------------------------------5--x-x-x-x-----------|


  Q    E   E  Q    E  E     Q    E  S S S S E  S S S S  
--7----7S--5--5----5--5--|--5----5----------5--5-5-----|
--9----9S--7--7----7--7--|--5----5----------7--7-7-----|
--9----9S--7--7----7--7--|--6----6----------7--7-7-x-x-|
--9----9S--7--7----7--7--|--7----7--x-x-x-x-7--7-7-x-x-|
--7----7S--5--5----5--5--|--7----7--x-x-x-x-5--5-5-x-x-|
-------------------------|--5----5--x-x-x-x------------|


  Q    E  S S S S E  S S S S                                          
--7----7----------5--5-5-5-5-|----|----|----|----|----|----|----|----|
--9----9----------7--7-7-7-7-|----|----|----|----|----|----|----|----|
--9----9--x-x-x-x-7--7-7-7-7-|----|----|----|----|----|----|----|----|
--9----9--x-x-x-x-7--7-7-7-7-|----|----|----|----|----|----|----|----|
--7----7--x-x-x-x-5--5-5-5-5-|----|----|----|----|----|----|----|----|
-----------------------------|----|----|----|----|----|----|----|----|


  should be overdriven a bit                                
  S                          S S S S S S S S S S S S S S S  
--x--------------------------5-x-5-x-5-x-5-x-5-x-5-x-5-x-5-|
--x--------------------------5-x-5-x-5-x-5-x-7-x-7-x-7-x-7-|
--x--------------------------6-x-6-x-6-x-6-x-7-x-7-x-7-x-7-|
--x--------------------------7-x-7-x-7-x-7-x-7-x-7-x-7-x-7-|
--x--------------------------7-x-7-x-7-x-7-x-5-x-5-x-5-x-5-|
--x--------------------------5-x-5-x-5-x-5-x---------------|


  S S S S S S S S S S S S S S S S    S S S S S S S S S S S S S S S S  
--x-7-x-7-x-7-x-7-x-5-x-5-x-5-x-5-|--x-5-x-5-x-5-x-5-x-5-x-5-x-5-x-5-|
--x-9-x-9-x-9-x-9-x-7-x-7-x-7-x-7-|--x-5-x-5-x-5-x-5-x-7-x-7-x-7-x-7-|
--x-9-x-9-x-9-x-9-x-7-x-7-x-7-x-7-|--x-6-x-6-x-6-x-6-x-7-x-7-x-7-x-7-|
--x-9-x-9-x-9-x-9-x-7-x-7-x-7-x-7-|--x-7-x-7-x-7-x-7-x-7-x-7-x-7-x-7-|
--x-7-x-7-x-7-x-7-x-5-x-5-x-5-x-5-|--x-7-x-7-x-7-x-7-x-5-x-5-x-5-x-5-|
----------------------------------|--x-5-x-5-x-5-x-5-x---------------|


  S S S S S S S S S S S S S S S S    S S S S S S S S S S S S S S S S  
--x-7-x-7-x-7-x-7-x-5-x-5-x-5-x-5-|--x-5-x-5-x-5-x-5-x-5-x-5-x-5-x-5-|
--x-9-x-9-x-9-x-9-x-7-x-7-x-7-x-7-|--x-5-x-5-x-5-x-5-x-7-x-7-x-7-x-7-|
--x-9-x-9-x-9-x-9-x-7-x-7-x-7-x-7-|--x-6-x-6-x-6-x-6-x-7-x-7-x-7-x-7-|
--x-9-x-9-x-9-x-9-x-7-x-7-x-7-x-7-|--x-7-x-7-x-7-x-7-x-7-x-7-x-7-x-7-|
--x-7-x-7-x-7-x-7-x-5-x-5-x-5-x-5-|--x-7-x-7-x-7-x-7-x-5-x-5-x-5-x-5-|
----------------------------------|--x-5-x-5-x-5-x-5-x---------------|


  S S S S S S S S S S S S S S S S    S S S S S S S S S S S S S S S S  
--x-7-x-7-x-7-x-7-x-5-x-5-x-5-x-5-|--x-5-x-5-x-5-x-5-x-5-x-5-x-5-x-5-|
--x-9-x-9-x-9-x-9-x-7-x-7-x-7-x-7-|--x-5-x-5-x-5-x-5-x-7-x-7-x-7-x-7-|
--x-9-x-9-x-9-x-9-x-7-x-7-x-7-x-7-|--x-6-x-6-x-6-x-6-x-7-x-7-x-7-x-7-|
--x-9-x-9-x-9-x-9-x-7-x-7-x-7-x-7-|--x-7-x-7-x-7-x-7-x-7-x-7-x-7-x-7-|
--x-7-x-7-x-7-x-7-x-5-x-5-x-5-x-5-|--x-7-x-7-x-7-x-7-x-5-x-5-x-5-x-5-|
----------------------------------|--x-5-x-5-x-5-x-5-x---------------|


  S S S S S S S S S S S S S S S S                                          
--x-7-x-7-x-7-x-7-x-5-x-5-x-5-x-5-|----|----|----|----|----|----|----|----|
--x-9-x-9-x-9-x-9-x-7-x-7-x-7-x-7-|----|----|----|----|----|----|----|----|
--x-9-x-9-x-9-x-9-x-7-x-7-x-7-x-7-|----|----|----|----|----|----|----|----|
--x-9-x-9-x-9-x-9-x-7-x-7-x-7-x-7-|----|----|----|----|----|----|----|----|
--x-7-x-7-x-7-x-7-x-5-x-5-x-5-x-5-|----|----|----|----|----|----|----|----|
----------------------------------|----|----|----|----|----|----|----|----|


  should be overdriven a bit                                
  S                          S S S S S S S S S S S S S S S  
--x--------------------------5-x-5-x-5-x-5-x-5-x-5-x-5-x-5-|
--x--------------------------5-x-5-x-5-x-5-x-7-x-7-x-7-x-7-|
--x--------------------------6-x-6-x-6-x-6-x-7-x-7-x-7-x-7-|
--x--------------------------7-x-7-x-7-x-7-x-7-x-7-x-7-x-7-|
--x--------------------------7-x-7-x-7-x-7-x-5-x-5-x-5-x-5-|
--x--------------------------5-x-5-x-5-x-5-x---------------|


  S S S S S S S S S S S S S S S S  
--x-7-x-7-x-7-x-7-x-5-x-5-x-5-x-5-|
--x-9-x-9-x-9-x-9-x-7-x-7-x-7-x-7-|
--x-9-x-9-x-9-x-9-x-7-x-7-x-7-x-7-|
--x-9-x-9-x-9-x-9-x-7-x-7-x-7-x-7-|
--x-7-x-7-x-7-x-7-x-5-x-5-x-5-x-5-|
----------------------------------|


  should be overdriven a bit                                
  S                          S S S S S S S S S S S S S S S  
--x--------------------------5-x-5-x-5-x-5-x-5-x-5-x-5-x-5-|
--x--------------------------5-x-5-x-5-x-5-x-7-x-7-x-7-x-7-|
--x--------------------------6-x-6-x-6-x-6-x-7-x-7-x-7-x-7-|
--x--------------------------7-x-7-x-7-x-7-x-7-x-7-x-7-x-7-|
--x--------------------------7-x-7-x-7-x-7-x-5-x-5-x-5-x-5-|
--x--------------------------5-x-5-x-5-x-5-x---------------|


  S S S S S S S S S S S S S S S S  
--x-7-x-7-x-7-x-7-x-5-x-5-x-5-x-5-|
--x-9-x-9-x-9-x-9-x-7-x-7-x-7-x-7-|
--x-9-x-9-x-9-x-9-x-7-x-7-x-7-x-7-|
--x-9-x-9-x-9-x-9-x-7-x-7-x-7-x-7-|
--x-7-x-7-x-7-x-7-x-5-x-5-x-5-x-5-|
----------------------------------|


  should be overdriven a bit                                
  S                          S S S S S S S S S S S S S S S  
--x--------------------------5-x-5-x-5-x-5-x-5-x-5-x-5-x-5-|
--x--------------------------5-x-5-x-5-x-5-x-7-x-7-x-7-x-7-|
--x--------------------------6-x-6-x-6-x-6-x-7-x-7-x-7-x-7-|
--x--------------------------7-x-7-x-7-x-7-x-7-x-7-x-7-x-7-|
--x--------------------------7-x-7-x-7-x-7-x-5-x-5-x-5-x-5-|
--x--------------------------5-x-5-x-5-x-5-x---------------|


  S S S S S S S S S S S S S S S S  
--x-7-x-7-x-7-x-7-x-5-x-5-x-5-x-5-|
--x-9-x-9-x-9-x-9-x-7-x-7-x-7-x-7-|
--x-9-x-9-x-9-x-9-x-7-x-7-x-7-x-7-|
--x-9-x-9-x-9-x-9-x-7-x-7-x-7-x-7-|
--x-7-x-7-x-7-x-7-x-5-x-5-x-5-x-5-|
----------------------------------|


  should be overdriven a bit                                
  S                          S S S S S S S S S S S S S S S  
--x--------------------------5-x-5-x-5-x-5-x-5-x-5-x-5-x-5-|
--x--------------------------5-x-5-x-5-x-5-x-7-x-7-x-7-x-7-|
--x--------------------------6-x-6-x-6-x-6-x-7-x-7-x-7-x-7-|
--x--------------------------7-x-7-x-7-x-7-x-7-x-7-x-7-x-7-|
--x--------------------------7-x-7-x-7-x-7-x-5-x-5-x-5-x-5-|
--x--------------------------5-x-5-x-5-x-5-x---------------|


  S S S S S S S S S S S S S S S S                           
--x-7-x-7-x-7-x-7-x-5-x-5-x-5-x-5-|----|----|----|----|----|
--x-9-x-9-x-9-x-9-x-7-x-7-x-7-x-7-|----|----|----|----|----|
--x-9-x-9-x-9-x-9-x-7-x-7-x-7-x-7-|----|----|----|----|----|
--x-9-x-9-x-9-x-9-x-7-x-7-x-7-x-7-|----|----|----|----|----|
--x-7-x-7-x-7-x-7-x-5-x-5-x-5-x-5-|----|----|----|----|----|
----------------------------------|----|----|----|----|----|


  S S S S S S S S S S S S S S S S              E  S S E  S E  S S S E  E   
--x-5-x-5-x-5-x-5-x-5-x-5-x-5-x-5-|----|----|-----------------------------|
--x-7-x-7-x-7-x-7-x-7-x-7-x-7-x-7-|----|----|--2--2-2-3--2-2--2-2-2-3--2--|
--x-7-x-7-x-7-x-7-x-7-x-7-x-7-x-7-|----|----|-----------------------------|
--x-7-x-7-x-7-x-7-x-7-x-7-x-7-x-7-|----|----|-----------------------------|
--x-5-x-5-x-5-x-5-x-5-x-5-x-5-x-5-|----|----|-----------------------------|
----------------------------------|----|----|-----------------------------|


  E  S S E  S E  S S S E  E     E  S S E  S E  S S S E  E   
-----------------------------|-----------------------------|
--2--2-2-3--2-2--2-2-2-3--5--|--2--2-2-3--2-2--2-2-2-3--2--|
-----------------------------|-----------------------------|
-----------------------------|-----------------------------|
-----------------------------|-----------------------------|
-----------------------------|-----------------------------|


  E  S S E  S E  S S S E  E     E  S S S E.  E  S S S E.   
-----------------------------|----------------------------|
--2--2-2-3--2-2--2-2-2-3--5--|--2--2-2-3-5---2--2-2-3-5---|
-----------------------------|----------------------------|
-----------------------------|----------------------------|
-----------------------------|----------------------------|
-----------------------------|----------------------------|


  E  S S S E.  E  E  S S E     E  S S S E.  E  S S S E.   
---------------2------------|----------------------------|
--2--2-2-3-5------5--3-5-3--|--2--2-2-3-5---2--2-2-3-5---|
----------------------------|----------------------------|
----------------------------|----------------------------|
----------------------------|----------------------------|
----------------------------|----------------------------|


  |-3-| |-3-| |-3-| |-3-| |-3-| |-3-| |-3-| |-3-|                           
  S S S S S S S S S S S S S S S S S S S S S S S S                           
--------------------------------------------------|----|----|----|----|----|
--2-3-5-2-3-5-2-3-5-2-3-5-2-3-5-2-3-5-2-3-5-2-3-5-|----|----|----|----|----|
--------------------------------------------------|----|----|----|----|----|
--------------------------------------------------|----|----|----|----|----|
--------------------------------------------------|----|----|----|----|----|
--------------------------------------------------|----|----|----|----|----|


  S S S S S S S S S S S S S S S S                      
--x-5-x-5-x-5-x-5-x-4-x-4-x-2-x-2-|----|----|----|----|
--x-7-x-7-x-7-x-7-x-6-x-6-x-4-x-4-|----|----|----|----|
--x-7-x-7-x-7-x-7-x-6-x-6-x-4-x-4-|----|----|----|----|
--x-7-x-7-x-7-x-7-x-6-x-6-x-4-x-4-|----|----|----|----|
--x-5-x-5-x-5-x-5-x-4-x-4-x-2-x-2-|----|----|----|----|
----------------------------------|----|----|----|----|


  w/ Chorus (pattern is a little off)                       
  Q                                   E  S S S S E  E   E   
--5-----------------------------------5----------5--5S--7--|
--5-----------------------------------5----------7--7S--9--|
--6-----------------------------------6----------7--7S--9--|
--7-----------------------------------7--x-x-x-x-7--7S--9--|
--7-----------------------------------7--x-x-x-x-5--5S--7--|
--5-----------------------------------5--x-x-x-x-----------|


  Q    E   E  Q    E  E     Q    E  S S S S E  S S S S  
--7----7S--5--5----5--5--|--5----5----------5--5-5-----|
--9----9S--7--7----7--7--|--5----5----------7--7-7-----|
--9----9S--7--7----7--7--|--6----6----------7--7-7-x-x-|
--9----9S--7--7----7--7--|--7----7--x-x-x-x-7--7-7-x-x-|
--7----7S--5--5----5--5--|--7----7--x-x-x-x-5--5-5-x-x-|
-------------------------|--5----5--x-x-x-x------------|


  Q    E  S S S S E  S S S S                                               
--7----7----------5--5-5-5-5-|----|----|----|----|----|----|----|----|----|
--9----9----------7--7-7-7-7-|----|----|----|----|----|----|----|----|----|
--9----9--x-x-x-x-7--7-7-7-7-|----|----|----|----|----|----|----|----|----|
--9----9--x-x-x-x-7--7-7-7-7-|----|----|----|----|----|----|----|----|----|
--7----7--x-x-x-x-5--5-5-5-5-|----|----|----|----|----|----|----|----|----|
-----------------------------|----|----|----|----|----|----|----|----|----|


  S S S S S S S S S S S S S S S S                       
--x-5-x-5-x-5-x-5-x-4-x-4-x-2-x-2-|----|----|----|----||
--x-7-x-7-x-7-x-7-x-6-x-6-x-4-x-4-|----|----|----|----||
--x-7-x-7-x-7-x-7-x-6-x-6-x-4-x-4-|----|----|----|----||
--x-7-x-7-x-7-x-7-x-6-x-6-x-4-x-4-|----|----|----|----||
--x-5-x-5-x-5-x-5-x-4-x-4-x-2-x-2-|----|----|----|----||
----------------------------------|----|----|----|----||


                                                                   


      
Guitar 3



                             H.            E   E   
E||-------|-------|-------|-----------------------|
B||-------|-------|-------|-----------------------|
G||-------|-------|-------|-----------------------|
D||-------|-------|-------|-----------------------|
A||-------|-------|-------|-----------------------|
E||-------|-------|-------|---------------21S--5--|


  Q    E  S S S S E  S S S S    Q    E  S S S S E  S S S S  
-----------------------------|-----------------------------|
-----------------------------|-----------------------------|
------------------7--7-7-7-7-|--9----9--x-x-x-x-7--7-7-7-7-|
--7----7--x-x-x-x-7--7-7-7-7-|--9----9--x-x-x-x-7--7-7-7-7-|
--7----7--x-x-x-x-5--5-5-5-5-|--7----7--x-x-x-x-5--5-5-5-5-|
--5----5--x-x-x-x------------|-----------------------------|


  Q    E  S S S S E  S S S S    Q    E  S S S S E  S S S S  
-----------------------------|-----------------------------|
-----------------------------|-----------------------------|
------------------7--7-7-7-7-|--9----9--x-x-x-x-7--7-7-7-7-|
--7----7--x-x-x-x-7--7-7-7-7-|--9----9--x-x-x-x-7--7-7-7-7-|
--7----7--x-x-x-x-5--5-5-5-5-|--7----7--x-x-x-x-5--5-5-5-5-|
--5----5--x-x-x-x------------|-----------------------------|


  E  S S E  S E  S S S E  E     E  S S E  S E  S S S E  E   
-----------------------------|-----------------------------|
--2--2-2-3--2-2--2-2-2-3--2--|--2--2-2-3--2-2--2-2-2-3--5--|
-----------------------------|-----------------------------|
-----------------------------|-----------------------------|
-----------------------------|-----------------------------|
-----------------------------|-----------------------------|


  E  S S E  S E  S S S E  E     E  S S E  E  S S E  S E.                        
-----------------------------|----------------------------|-----|----|----|----|
--2--2-2-3--2-2--2-2-2-3--2--|--2--2-2-3--2--2-3-5--3-5---|-----|----|----|----|
-----------------------------|----------------------------|-----|----|----|----|
-----------------------------|----------------------------|-----|----|----|----|
-----------------------------|----------------------------|-----|----|----|----|
-----------------------------|----------------------------|-----|----|----|----|


                      S E  S S E  S S E  S S E  S  
----|----|----|----|------------------------------|
----|----|----|----|------------------------------|
----|----|----|----|----------------9-9--9-9-9--9-|
----|----|----|----|--7-7--7-7-7--7-9-9--9-9-9--9-|
----|----|----|----|--7-7--7-7-7--7-7-7--7-7-7--7-|
----|----|----|----|--5-5--5-5-5--5---------------|


  S S S S S S S S S S S S S S S S    S E  S S E  S S E  S S E  S  
----------------------------------|------------------------------|
----------------------------------|------------------------------|
--7-7-x-7-7-7-x-7-7-7-x-7-7-7-7-7-|----------------9-9--9-9-9--9-|
--7-7-x-7-7-7-x-7-7-7-x-7-7-7-7-7-|--7-7--7-7-7--7-9-9--9-9-9--9-|
--5-5-x-5-5-5-x-5-5-5-x-5-5-5-5-5-|--7-7--7-7-7--7-7-7--7-7-7--7-|
----------------------------------|--5-5--5-5-5--5---------------|


   S  E   S  S  E   S S S S S S S S S    S E  S S E  S S E  S S E  S  
--------------------------------------|------------------------------|
--------------------------------------|------------------------------|
--11-11--11-11-11--11-7-7-6-6-7-7-9-9-|----------------9-9--9-9-9--9-|
--------------------------------------|--7-7--7-7-7--7-9-9--9-9-9--9-|
---9--9---9--9--9---9-5-5-4-4-5-5-7-7-|--7-7--7-7-7--7-7-7--7-7-7--7-|
--------------------------------------|--5-5--5-5-5--5---------------|


     PM PM PM PM PM PM PM PM    PM PM                                    
  E  S  S  S  S  S  S  S  S  E  S  S  E     S E  S S E  S S E  S S E  S  
-----------------------------------------|------------------------------|
-----------------------------------------|------------------------------|
--7--7--7--7--7--7--7--6--6--6--4--4--4--|----------------9-9--9-9-9--9-|
--7--7--7--7--7--7--7--6--6--6--4--4--4--|--7-7--7-7-7--7-9-9--9-9-9--9-|
--5--5--5--5--5--5--5--4--4--4--2--2--2--|--7-7--7-7-7--7-7-7--7-7-7--7-|
-----------------------------------------|--5-5--5-5-5--5---------------|


   S  E   S  S  E   S S S S S S S S S                                           
--------------------------------------|-----|----|----|----|----|----|----|----|
--------------------------------------|-----|----|----|----|----|----|----|----|
--11-11--11-11-11--11-7-7-6-6-7-7-4-4-|-----|----|----|----|----|----|----|----|
--------------------------------------|-----|----|----|----|----|----|----|----|
---9--9---9--9--9---9-5-5-4-4-5-5-2-2-|-----|----|----|----|----|----|----|----|
--------------------------------------|-----|----|----|----|----|----|----|----|


  S E  S S E  S S E  S S E  S    S S S S S S S S S S S S S S S S  
------------------------------|----------------------------------|
------------------------------|----------------------------------|
----------------9-9--9-9-9--9-|--7-7-x-7-7-7-x-7-7-7-x-7-7-7-7-7-|
--7-7--7-7-7--7-9-9--9-9-9--9-|--7-7-x-7-7-7-x-7-7-7-x-7-7-7-7-7-|
--7-7--7-7-7--7-7-7--7-7-7--7-|--5-5-x-5-5-5-x-5-5-5-x-5-5-5-5-5-|
--5-5--5-5-5--5---------------|----------------------------------|


  S E  S S E  S S E  S S E  S     S  E   S  S  E   S S S S S S S S S  
------------------------------|--------------------------------------|
------------------------------|--------------------------------------|
----------------9-9--9-9-9--9-|--11-11--11-11-11--11-7-7-6-6-7-7-9-9-|
--7-7--7-7-7--7-9-9--9-9-9--9-|--------------------------------------|
--7-7--7-7-7--7-7-7--7-7-7--7-|---9--9---9--9--9---9-5-5-4-4-5-5-7-7-|
--5-5--5-5-5--5---------------|--------------------------------------|


  S E  S S E  S S E  S S E  S          S E  S S E  S S E  S S E  S  
------------------------------|-----|------------------------------|
------------------------------|-----|------------------------------|
----------------9-9--9-9-9--9-|-----|----------------9-9--9-9-9--9-|
--7-7--7-7-7--7-9-9--9-9-9--9-|-----|--7-7--7-7-7--7-9-9--9-9-9--9-|
--7-7--7-7-7--7-7-7--7-7-7----|-----|--7-7--7-7-7--7-7-7--7-7-7--7-|
--5-5--5-5-5--5---------------|-----|--5-5--5-5-5--5---------------|


   S  E   S  S  E   S S S S S S S S S                          
--------------------------------------|-----|-----|-----|-----|
--------------------------------------|-----|-----|-----|-----|
--11-11--11-11-11--11-7-7-6-6-7-7-9-9-|-----|-----|-----|-----|
--------------------------------------|-----|-----|-----|-----|
---9--9---9--9--9---9-5-5-4-4-5-5-7-7-|-----|-----|-----|-----|
--------------------------------------|-----|-----|-----|-----|


  E  S S S E.  E  S S S E.     E  S S S E.  E  E  S S E   
----------------------------|---------------2------------|
--2--2-2-3-5---2--2-2-3-5---|--2--2-2-3-5------5--3-5-3--|
----------------------------|----------------------------|
----------------------------|----------------------------|
----------------------------|----------------------------|
----------------------------|----------------------------|


                               |-3-| |-3-| |-3-| |-3-| |-3-| |-3-| |-3-| |-3-|  
  E  S S S E.  E  S S S E.     S S S S S S S S S S S S S S S S S S S S S S S S  
----------------------------|--------------------------------------------------|
--2--2-2-3-5---2--2-2-3-5---|--2-3-5-2-3-5-2-3-5-2-3-5-2-3-5-2-3-5-2-3-5-2-3-5-|
----------------------------|--------------------------------------------------|
----------------------------|--------------------------------------------------|
----------------------------|--------------------------------------------------|
----------------------------|--------------------------------------------------|


  S E  S S E  S S E  S S E  S    S S S S S S S S S S S S S S S S  
------------------------------|----------------------------------|
------------------------------|----------------------------------|
----------------9-9--9-9-9--9-|--7-7-x-7-7-7-x-7-7-7-x-7-7-7-7-7-|
--7-7--7-7-7--7-9-9--9-9-9--9-|--7-7-x-7-7-7-x-7-7-7-x-7-7-7-7-7-|
--7-7--7-7-7--7-7-7--7-7-7--7-|--5-5-x-5-5-5-x-5-5-5-x-5-5-5-5-5-|
--5-5--5-5-5--5---------------|----------------------------------|


  S E  S S E  S S E  S S E  S     S  E   S  S  E   S S S S S S S S S  
------------------------------|--------------------------------------|
------------------------------|--------------------------------------|
----------------9-9--9-9-9--9-|--11-11--11-11-11--11-7-7-6-6-7-7-9-9-|
--7-7--7-7-7--7-9-9--9-9-9--9-|--------------------------------------|
--7-7--7-7-7--7-7-7--7-7-7--7-|---9--9---9--9--9---9-5-5-4-4-5-5-7-7-|
--5-5--5-5-5--5---------------|--------------------------------------|


  S E  S S E  S S E  S S E  S          S E  S S E  S S E  S S E  S  
------------------------------|-----|------------------------------|
------------------------------|-----|------------------------------|
----------------9-9--9-9-9--9-|-----|----------------9-9--9-9-9--9-|
--7-7--7-7-7--7-9-9--9-9-9--9-|-----|--7-7--7-7-7--7-9-9--9-9-9--9-|
--7-7--7-7-7--7-7-7--7-7-7----|-----|--7-7--7-7-7--7-7-7--7-7-7--7-|
--5-5--5-5-5--5---------------|-----|--5-5--5-5-5--5---------------|


   S  E   S  S  E   S S S S S S S S S    W                 
--------------------------------------|-------------------|
--------------------------------------|-------------------|
--11-11--11-11-11--11-7-7-6-6-7-7-9-9-|-------------------|
--------------------------------------|--7----------------|
---9--9---9--9--9---9-5-5-4-4-5-5-7-7-|--7----------------|
--------------------------------------|--5----------------|


  first time in the history of the world                          
  W                                         Q                     
-----------------------------------------|-------|-------|-------|
-----------------------------------------|-------|-------|-------|
-----------------------------------------|-------|-------|-------|
--L--------------------------------------|--L----|-------|-------|
--L--------------------------------------|--L----|-------|-------|
--L--------------------------------------|--L----|-------|-------|


  H.            E   E     Q    E  S S S S E  S S S S  
-----------------------|-----------------------------|
-----------------------|-----------------------------|
-----------------------|------------------7--7-7-7-7-|
-----------------------|--7----7--x-x-x-x-7--7-7-7-7-|
-----------------------|--7----7--x-x-x-x-5--5-5-5-5-|
---------------21S--5--|--5----5--x-x-x-x------------|


  Q    E  S S S S E  S S S S    Q    E  S S S S E  S S S S  
-----------------------------|-----------------------------|
-----------------------------|-----------------------------|
--9----9--x-x-x-x-7--7-7-7-7-|------------------7--7-7-7-7-|
--9----9--x-x-x-x-7--7-7-7-7-|--7----7--x-x-x-x-7--7-7-7-7-|
--7----7--x-x-x-x-5--5-5-5-5-|--7----7--x-x-x-x-5--5-5-5-5-|
-----------------------------|--5----5--x-x-x-x------------|


  Q    E  S S S S E  S S S S    S E  S S E  S S E  S S E  S  
-----------------------------|------------------------------|
-----------------------------|------------------------------|
--9----9--x-x-x-x-7--7-7-7-7-|----------------9-9--9-9-9--9-|
--9----9--x-x-x-x-7--7-7-7-7-|--7-7--7-7-7--7-9-9--9-9-9--9-|
--7----7--x-x-x-x-5--5-5-5-5-|--7-7--7-7-7--7-7-7--7-7-7--7-|
-----------------------------|--5-5--5-5-5--5---------------|


  S S S S S S S S S S S S S S S S    S E  S S E  S S E  S S E  S  
----------------------------------|------------------------------|
----------------------------------|------------------------------|
--7-7-x-7-7-7-x-7-7-7-x-7-7-7-7-7-|----------------9-9--9-9-9--9-|
--7-7-x-7-7-7-x-7-7-7-x-7-7-7-7-7-|--7-7--7-7-7--7-9-9--9-9-9--9-|
--5-5-x-5-5-5-x-5-5-5-x-5-5-5-5-5-|--7-7--7-7-7--7-7-7--7-7-7--7-|
----------------------------------|--5-5--5-5-5--5---------------|


   S  E   S  S  E   S S S S S S S S S    S E  S S E  S S E  S S E  S        
--------------------------------------|------------------------------|-----|
--------------------------------------|------------------------------|-----|
--11-11--11-11-11--11-7-7-6-6-7-7-9-9-|----------------9-9--9-9-9--9-|-----|
--------------------------------------|--7-7--7-7-7--7-9-9--9-9-9--9-|-----|
---9--9---9--9--9---9-5-5-4-4-5-5-7-7-|--7-7--7-7-7--7-7-7--7-7-7----|-----|
--------------------------------------|--5-5--5-5-5--5---------------|-----|


  S E  S S E  S S E  S S E  S     S  E   S  S  E   S S S S S S S S S  
------------------------------|--------------------------------------|
------------------------------|--------------------------------------|
----------------9-9--9-9-9--9-|--11-11--11-11-11--11-7-7-6-6-7-7-4-4-|
--7-7--7-7-7--7-9-9--9-9-9--9-|--------------------------------------|
--7-7--7-7-7--7-7-7--7-7-7--7-|---9--9---9--9--9---9-5-5-4-4-5-5-2-2-|
--5-5--5-5-5--5---------------|--------------------------------------|


  W                   E    
-------------------|-----||
-------------------|-----||
-------------------|-----||
--7----------------|--7--||
--7----------------|--7--||
--5----------------|--5--||



                                 4.Suicide                                      
                                 by: UNKNOWN

                                                                  
Guitar 1



      H           H           H           S S S S S S S T T    
E||------------|-----------|-----------|---------------------||
B||------------|-----------|-----------|---------------------||
G||*-----------|-----------|-----------|--------------------*||
D||*-----------|-----------|-----------|--9-9-x-9-x-9-9-9-9-*||
A||------------|-----------|-----------|--9-9-x-9-x-9-9-9-9--||
E||------------|-----------|-----------|--7-7-x-7-x-7-7-7-7--||


    E   S  S  S  S  S  S     E   S  S  S  S  S  S    E  S S S S S S  
-------------------------|------------------------|-----------------|
-------------------------|------------------------|-----------------|
*------------------------|------------------------|-----------------|
*--11--11-11-11-11-11-11-|--12--12-12-12-12-12-12-|--7--7-7-7-7-7-7-|
---11--11-11-11-11-11-11-|--12--12-12-12-12-12-12-|--7--7-7-7-7-7-7-|
----9---9--9--9--9--9--9-|--10--10-10-10-10-10-10-|--5--5-5-5-5-5-5-|


  E  S S S S S S       E   S  S  S  S  S  S     E   S  S  S  S  S  S  
------------------||------------------------|------------------------|
------------------||------------------------|------------------------|
-----------------*||------------------------|------------------------|
--9--9-9-9-9-9-9-*||--11--11-11-11-11-11-11-|--12--12-12-12-12-12-12-|
--9--9-9-9-9-9-9--||--11--11-11-11-11-11-11-|--12--12-12-12-12-12-12-|
--7--7-7-7-7-7-7--||---9---9--9--9--9--9--9-|--10--10-10-10-10-10-10-|


  E  S S S S S S    E  S S S S S S     E   S  S  S  S  S  S  
-----------------|-----------------|------------------------|
-----------------|-----------------|------------------------|
-----------------|-----------------|------------------------|
--7--7-7-7-7-7-7-|--9--9-9-9-9-9-9-|--11--11-11-11-11-11-11-|
--7--7-7-7-7-7-7-|--9--9-9-9-9-9-9-|--11--11-11-11-11-11-11-|
--5--5-5-5-5-5-5-|--7--7-7-7-7-7-7-|---9---9--9--9--9--9--9-|


   E   S  S  S  S  S  S    E  S S S S S S    E  S S S S S S  
------------------------|-----------------|-----------------|
------------------------|-----------------|-----------------|
------------------------|-----------------|-----------------|
--12--12-12-12-12-12-12-|--7--7-7-7-7-7-7-|--9--9-9-9-9-9-9-|
--12--12-12-12-12-12-12-|--7--7-7-7-7-7-7-|--9--9-9-9-9-9-9-|
--10--10-10-10-10-10-10-|--5--5-5-5-5-5-5-|--7--7-7-7-7-7-7-|


     S  S  S  S  S  S  S  S     S  S  S  S  S  S  S  S    S S S S S S S S  
|---------------------------|--------------------------|------------------|
|---------------------------|--------------------------|------------------|
|*--------------------------|--------------------------|------------------|
|*---x-11--x-11--x-11--x-11-|---x-12--x-12--x-12--x-12-|--x-7-x-7-x-7-x-7-|
|----x-11--x-11--x-11--x-11-|---x-12--x-12--x-12--x-12-|--x-7-x-7-x-7-x-7-|
|----x--9--x--9--x--9--x--9-|---x-10--x-10--x-10--x-10-|--x-5-x-5-x-5-x-5-|


  S S S S S S S S  3x   S  S  S  S  S  S  S  S     S  S  S  S  S  S  S  S  
-------------------||--------------------------|--------------------------|
-------------------||--------------------------|--------------------------|
------------------*||--------------------------|--------------------------|
--x-9-x-9-x-9-x-9-*||---x-11--x-11--x-11--x-11-|---x-12--x-12--x-12--x-12-|
--x-9-x-9-x-9-x-9--||---x-11--x-11--x-11--x-11-|---x-12--x-12--x-12--x-12-|
--x-7-x-7-x-7-x-7--||---x--9--x--9--x--9--x--9-|---x-10--x-10--x-10--x-10-|


  S S S S S S S S    E  E  E  E        E   S  S  S  S  S  S  
------------------|--------------||-------------------------|
------------------|--------------||-------------------------|
------------------|--------------||*------------------------|
--x-7-x-7-x-7-x-7-|--9--9--9--9--||*--11--11-11-11-11-11-11-|
--x-7-x-7-x-7-x-7-|--9--9--9--9--||---11--11-11-11-11-11-11-|
--x-5-x-5-x-5-x-5-|--7--7--7--7--||----9---9--9--9--9--9--9-|


   E   S  S  S  S  S  S    E  S S S S S S    E  S S S S S S    
------------------------|-----------------|------------------||
------------------------|-----------------|------------------||
------------------------|-----------------|-----------------*||
--12--12-12-12-12-12-12-|--7--7-7-7-7-7-7-|--9--9-9-9-9-9-9-*||
--12--12-12-12-12-12-12-|--7--7-7-7-7-7-7-|--9--9-9-9-9-9-9--||
--10--10-10-10-10-10-10-|--5--5-5-5-5-5-5-|--7--7-7-7-7-7-7--||


   E   S  S  S  S  S  S     E   S  S  S  S  S  S    E  S S S S S S  
------------------------|------------------------|-----------------|
------------------------|------------------------|-----------------|
------------------------|------------------------|-----------------|
--11--11-11-11-11-11-11-|--12--12-12-12-12-12-12-|--7--7-7-7-7-7-7-|
--11--11-11-11-11-11-11-|--12--12-12-12-12-12-12-|--7--7-7-7-7-7-7-|
---9---9--9--9--9--9--9-|--10--10-10-10-10-10-10-|--5--5-5-5-5-5-5-|


  E  S S S S S S     E   S  S  S  S  S  S     E   S  S  S  S  S  S  
-----------------|------------------------|------------------------|
-----------------|------------------------|------------------------|
-----------------|------------------------|------------------------|
--9--9-9-9-9-9-9-|--11--11-11-11-11-11-11-|--12--12-12-12-12-12-12-|
--9--9-9-9-9-9-9-|--11--11-11-11-11-11-11-|--12--12-12-12-12-12-12-|
--7--7-7-7-7-7-7-|---9---9--9--9--9--9--9-|--10--10-10-10-10-10-10-|


  E  S S S S S S    E  S S S S S S       S  S  S  S  S  S  S  S  
-----------------|-----------------||---------------------------|
-----------------|-----------------||---------------------------|
-----------------|-----------------||*--------------------------|
--7--7-7-7-7-7-7-|--9--9-9-9-9-9-9-||*---x-11--x-11--x-11--x-11-|
--7--7-7-7-7-7-7-|--9--9-9-9-9-9-9-||----x-11--x-11--x-11--x-11-|
--5--5-5-5-5-5-5-|--7--7-7-7-7-7-7-||----x--9--x--9--x--9--x--9-|


   S  S  S  S  S  S  S  S    S S S S S S S S    S S S S S S S S  3x
--------------------------|------------------|-------------------||
--------------------------|------------------|-------------------||
--------------------------|------------------|------------------*||
---x-12--x-12--x-12--x-12-|--x-7-x-7-x-7-x-7-|--x-9-x-9-x-9-x-9-*||
---x-12--x-12--x-12--x-12-|--x-7-x-7-x-7-x-7-|--x-9-x-9-x-9-x-9--||
---x-10--x-10--x-10--x-10-|--x-5-x-5-x-5-x-5-|--x-7-x-7-x-7-x-7--||


   S  S  S  S  S  S  S  S     S  S  S  S  S  S  S  S    S S S S S S S S  
--------------------------|--------------------------|------------------|
--------------------------|--------------------------|------------------|
--------------------------|--------------------------|------------------|
---x-11--x-11--x-11--x-11-|---x-12--x-12--x-12--x-12-|--x-7-x-7-x-7-x-7-|
---x-11--x-11--x-11--x-11-|---x-12--x-12--x-12--x-12-|--x-7-x-7-x-7-x-7-|
---x--9--x--9--x--9--x--9-|---x-10--x-10--x-10--x-10-|--x-5-x-5-x-5-x-5-|


  E  E  E  E        E   S  S  S  S  S  S     E   S  S  S  S  S  S  
--------------||-------------------------|------------------------|
--------------||-------------------------|------------------------|
--------------||*------------------------|------------------------|
--9--9--9--9--||*--11--11-11-11-11-11-11-|--12--12-12-12-12-12-12-|
--9--9--9--9--||---11--11-11-11-11-11-11-|--12--12-12-12-12-12-12-|
--7--7--7--7--||----9---9--9--9--9--9--9-|--10--10-10-10-10-10-10-|


  E  S S S S S S    E  S S S S S S  4x  H           H           H         
-----------------|------------------||-----------|-----------|-----------|
-----------------|------------------||-----------|-----------|-----------|
-----------------|-----------------*||-----------|-----------|-----------|
--7--7-7-7-7-7-7-|--9--9-9-9-9-9-9-*||-----------|-----------|-----------|
--7--7-7-7-7-7-7-|--9--9-9-9-9-9-9--||-----------|-----------|-----------|
--5--5-5-5-5-5-5-|--7--7-7-7-7-7-7--||-----------|-----------|-----------|


  S S S S S S S S    H           H            S  S  S  S  S  S  S  S  
------------------|-----------|-----------|--------------------------|
------------------|-----------|-----------|--------------------------|
--9-9-x-9-9-9-x-9-|-----------|-----------|--11-11--x-11-11-11--x-11-|
--9-9-x-9-9-9-x-9-|-----------|-----------|--11-11--x-11-11-11--x-11-|
--7-7-x-7-7-7-x-7-|-----------|-----------|---9--9--x--9--9--9--x--9-|
------------------|-----------|-----------|--------------------------|


   S  S  S  S  S  S  S  S       S  S  S  S  S  S  S  S     S  S  S  S  S S S S  
--------------------------||---------------------------|-----------------------|
--------------------------||---------------------------|-----------------------|
--11-11--x-11-11-11--x-11-||*--------------------------|-----------------------|
--11-11--x-11-11-11--x-11-||*--12-12--x-12-12-12--x-12-|--11-11--x-11-11-9-x-7-|
---9--9--x--9--9--9--x--9-||---12-12--x-12-12-12--x-12-|--11-11--x-11-11-9-x-7-|
--------------------------||---10-10--x-10-10-10--x-10-|---9--9--x--9--9-7-x-5-|


   S  S  S  S  S  S  S  S    S S S S S S S S     S  S  S  S  S  S  S  S  
--------------------------|------------------|--------------------------|
--------------------------|------------------|--------------------------|
--11-11--x-11-11-11--x-11-|--9-9-x-9-9-9-x-9-|--------------------------|
--11-11--x-11-11-11--x-11-|--9-9-x-9-9-9-x-9-|--12-12--x-12-12-12--x-12-|
---9--9--x--9--9--9--x--9-|--7-7-x-7-7-7-x-7-|--12-12--x-12-12-12--x-12-|
--------------------------|------------------|--10-10--x-10-10-10--x-10-|


   S  S  S  S  S S S S     S  S  S  S  S  S  S  S     S  S  S  S  S  S  S  S    
-----------------------|--------------------------|---------------------------||
-----------------------|--------------------------|---------------------------||
-----------------------|--11-11--x-11-11-11--x-11-|--11-11--x-11-11-11--x-11-*||
--11-11--x-11-11-9-x-7-|--11-11--x-11-11-11--x-11-|--11-11--x-11-11-11--x-11-*||
--11-11--x-11-11-9-x-7-|---9--9--x--9--9--9--x--9-|---9--9--x--9--9--9--x--9--||
---9--9--x--9--9-7-x-5-|--------------------------|---------------------------||


   S  S  S  S  S  S  S  S     S  S  S  S  S S S S     S  S  S  S  S  S  S  S  
--------------------------|-----------------------|--------------------------|
--------------------------|-----------------------|--------------------------|
--------------------------|-----------------------|--11-11--x-11-11-11--x-11-|
--12-12--x-12-12-12--x-12-|--11-11--x-11-11-9-x-7-|--11-11--x-11-11-11--x-11-|
--12-12--x-12-12-12--x-12-|--11-11--x-11-11-9-x-7-|---9--9--x--9--9--9--x--9-|
--10-10--x-10-10-10--x-10-|---9--9--x--9--9-7-x-5-|--------------------------|


  S S S S S S S S     S  S  S  S  S  S  S  S     S  S  S  S  S S S S  
------------------|--------------------------|-----------------------|
------------------|--------------------------|-----------------------|
--9-9-x-9-9-9-x-9-|--------------------------|-----------------------|
--9-9-x-9-9-9-x-9-|--12-12--x-12-12-12--x-12-|--11-11--x-11-11-9-x-7-|
--7-7-x-7-7-7-x-7-|--12-12--x-12-12-12--x-12-|--11-11--x-11-11-9-x-7-|
------------------|--10-10--x-10-10-10--x-10-|---9--9--x--9--9-7-x-5-|


   S  S  S  S  S  S  S  S    S S S S S S S S       S  S  S  S  S  S  S  S  
--------------------------|------------------||---------------------------|
--------------------------|------------------||---------------------------|
--11-11--x-11-11-11--x-11-|------------------||*--11-11--x-11-11-11--x-11-|
--11-11--x-11-11-11--x-11-|--4-4-x-4-4-4-x-4-||*--11-11--x-11-11-11--x-11-|
---9--9--x--9--9--9--x--9-|--4-4-x-4-4-4-x-4-||----9--9--x--9--9--9--x--9-|
--------------------------|--2-2-x-2-2-2-x-2-||---------------------------|


  S S S S S S S S       S  S  S  S  S  S  S  S    H             H         
-------------------||--------------------------|-----------||------------|
-------------------||--------------------------|-----------||------------|
------------------*||--11-11--x-11-11-11--x-11-|-----------||*-----------|
--4-4-x-4-4-4-x-4-*||--11-11--x-11-11-11--x-11-|--4--------||*-----------|
--4-4-x-4-4-4-x-4--||---9--9--x--9--9--9--x--9-|--4--------||------------|
--2-2-x-2-2-2-x-2--||--------------------------|--2--------||------------|


  H           H           S S S S S S S T T        E   S  S  S  S  S  S  
-----------|-----------|---------------------||-------------------------|
-----------|-----------|---------------------||-------------------------|
-----------|-----------|--------------------*||*------------------------|
-----------|-----------|--9-9-9-9-9-9-9-9-9-*||*--11--11-11-11-11-11-11-|
-----------|-----------|--9-9-9-9-9-9-9-9-9--||---11--11-11-11-11-11-11-|
-----------|-----------|--7-7-7-7-7-7-7-7-7--||----9---9--9--9--9--9--9-|


   E   S  S  S  S  S  S    E  S S S S S S    E  S S S S S S  3x
------------------------|-----------------|------------------||
------------------------|-----------------|------------------||
------------------------|-----------------|-----------------*||
--12--12-12-12-12-12-12-|--7--7-7-7-7-7-7-|--9--9-9-9-9-9-9-*||
--12--12-12-12-12-12-12-|--7--7-7-7-7-7-7-|--9--9-9-9-9-9-9--||
--10--10-10-10-10-10-10-|--5--5-5-5-5-5-5-|--7--7-7-7-7-7-7--||


   E   S  S  S  S  S  S     E   S  S  S  S  S  S    E  S S S S S S  
------------------------|------------------------|-----------------|
------------------------|------------------------|-----------------|
------------------------|------------------------|-----------------|
--11--11-11-11-11-11-11-|--12--12-12-12-12-12-12-|--7--7-7-7-7-7-7-|
--11--11-11-11-11-11-11-|--12--12-12-12-12-12-12-|--7--7-7-7-7-7-7-|
---9---9--9--9--9--9--9-|--10--10-10-10-10-10-10-|--5--5-5-5-5-5-5-|


  H          
-----------||
-----------||
-----------||
--9--------||
--9--------||
--7--------||



                                   Suicide                                      


                                                                  
Guitar 2



      H           H           H           S S S S S S S T T        Q     Q     
E||------------|-----------|-----------|---------------------||---------------|
B||------------|-----------|-----------|---------------------||---------------|
G||*-----------|-----------|-----------|--------------------*||*--------------|
D||*-----------|-----------|-----------|--9-9-x-9-x-9-9-9-9-*||*--------------|
A||------------|-----------|-----------|--9-9-x-9-x-9-9-9-9--||---12----11----|
E||------------|-----------|-----------|--7-7-x-7-x-7-7-7-7--||---------------|


   Q     Q        Q     Q        Q     Q          E   E   E   E   
--------------|--------------|---------------||------------------|
--------------|--------------|---------------||------------------|
--------------|--------------|--------------*||------------------|
--------------|--------------|--------------*||------------------|
--12----14----|--12----11----|--12----14-----||--12--11--12--14--|
--------------|--------------|---------------||------------------|


   E   E   E   E      E   E   E   E      E   E   E   E      E   E   E   E   
------------------|------------------|------------------|------------------|
------------------|------------------|------------------|------------------|
------------------|------------------|------------------|------------------|
------------------|------------------|------------------|------------------|
--12--11--12--14--|--12--11--12--14--|--12--11--12--14--|--12--11--12--14--|
------------------|------------------|------------------|------------------|


   E   E   E   E      E   E   E   E      S  S  S  S  S  S  S  S  
------------------|------------------|--------------------------|
------------------|------------------|--------------------------|
------------------|------------------|--------------------------|
------------------|------------------|--------------------------|
--12--11--12--14--|--12--11--12--14--|--12-12-12-12-12-12-12-12-|
------------------|------------------|--------------------------|


     S  S  S  S  S  S  S  S     S  S  S  S  S  S  S  S    S S S S S S S S  
|----x--9--x--9--x--9--x--9-|---x-10--x-10--x-10--x-10-|--x-5-x-5-x-5-x-5-|
|----x--9--x--9--x--9--x--9-|---x-10--x-10--x-10--x-10-|--x-5-x-5-x-5-x-5-|
|*---x-10--x-10--x-10--x-10-|---x-11--x-11--x-11--x-11-|--x-6-x-6-x-6-x-6-|
|*---x-11--x-11--x-11--x-11-|---x-12--x-12--x-12--x-12-|--x-7-x-7-x-7-x-7-|
|---------------------------|--------------------------|------------------|
|---------------------------|--------------------------|------------------|


  S S S S S S S S  3x   S  S  S  S  S  S  S  S     S  S  S  S  S  S  S  S  
--x-7-x-7-x-7-x-7--||---x--9--x--9--x--9--x--9-|---x-10--x-10--x-10--x-10-|
--x-7-x-7-x-7-x-7--||---x--9--x--9--x--9--x--9-|---x-10--x-10--x-10--x-10-|
--x-8-x-8-x-8-x-8-*||---x-10--x-10--x-10--x-10-|---x-11--x-11--x-11--x-11-|
--x-9-x-9-x-9-x-9-*||---x-11--x-11--x-11--x-11-|---x-12--x-12--x-12--x-12-|
-------------------||--------------------------|--------------------------|
-------------------||--------------------------|--------------------------|


  S S S S S S S S    E  E  E  E        E   E   E   E      E   E   E   E   
--x-5-x-5-x-5-x-5-|--7--7--7--7--||-------------------|------------------|
--x-5-x-5-x-5-x-5-|--7--7--7--7--||-------------------|------------------|
--x-6-x-6-x-6-x-6-|--8--8--8--8--||*------------------|------------------|
--x-7-x-7-x-7-x-7-|--9--9--9--9--||*------------------|------------------|
------------------|--------------||---12--11--12--14--|--12--11--12--14--|
------------------|--------------||-------------------|------------------|


   E   E   E   E      E   E   E   E        S  S  S  S  S  S  S  S  
------------------|-------------------||--------------------------|
------------------|-------------------||--------------------------|
------------------|------------------*||--------------------------|
------------------|------------------*||--------------------------|
--12--11--12--14--|--12--11--12--14---||--12-12-12-12-12-12-12-12-|
------------------|-------------------||--------------------------|


   S  S  S  S  S  S  S  S     S  S  S  S  S  S  S  S  
--------------------------|--------------------------|
--------------------------|--------------------------|
--------------------------|--------------------------|
--------------------------|--------------------------|
--11-11-11-11-11-11-11-11-|--12-12-12-12-12-12-12-12-|
--------------------------|--------------------------|


   S  S  S  S  S  S  S  S     Q     E   E      Q     E   E      Q     E   E   
--------------------------|----------------|----------------|----------------|
--------------------------|----------------|----------------|----------------|
--------------------------|----------------|----------------|----------------|
--------------------------|----------------|----------------|----------------|
--14-14-14-14-14-14-14-14-|--16----18--19--|--21----19--18--|--16----18--19--|
--------------------------|----------------|----------------|----------------|


   H              S  S  S  S  S  S  S  S     S  S  S  S  S  S  S  S  
------------||----x--9--x--9--x--9--x--9-|---x-10--x-10--x-10--x-10-|
------------||----x--9--x--9--x--9--x--9-|---x-10--x-10--x-10--x-10-|
------------||*---x-10--x-10--x-10--x-10-|---x-11--x-11--x-11--x-11-|
------------||*---x-11--x-11--x-11--x-11-|---x-12--x-12--x-12--x-12-|
--21--------||---------------------------|--------------------------|
------------||---------------------------|--------------------------|


  S S S S S S S S    S S S S S S S S  3x   S  S  S  S  S  S  S  S  
--x-5-x-5-x-5-x-5-|--x-7-x-7-x-7-x-7--||---x--9--x--9--x--9--x--9-|
--x-5-x-5-x-5-x-5-|--x-7-x-7-x-7-x-7--||---x--9--x--9--x--9--x--9-|
--x-6-x-6-x-6-x-6-|--x-8-x-8-x-8-x-8-*||---x-10--x-10--x-10--x-10-|
--x-7-x-7-x-7-x-7-|--x-9-x-9-x-9-x-9-*||---x-11--x-11--x-11--x-11-|
------------------|-------------------||--------------------------|
------------------|-------------------||--------------------------|


   S  S  S  S  S  S  S  S    S S S S S S S S    E  E  E  E        Q     Q     
---x-10--x-10--x-10--x-10-|--x-5-x-5-x-5-x-5-|--7--7--7--7--||---------------|
---x-10--x-10--x-10--x-10-|--x-5-x-5-x-5-x-5-|--7--7--7--7--||---------------|
---x-11--x-11--x-11--x-11-|--x-6-x-6-x-6-x-6-|--8--8--8--8--||*--------------|
---x-12--x-12--x-12--x-12-|--x-7-x-7-x-7-x-7-|--9--9--9--9--||*--------------|
--------------------------|------------------|--------------||---12----11----|
--------------------------|------------------|--------------||---------------|


   Q     Q        Q     Q        Q     Q     4x  H           H         
--------------|--------------|---------------||-----------|-----------|
--------------|--------------|---------------||-----------|-----------|
--------------|--------------|--------------*||-----------|-----------|
--------------|--------------|--------------*||-----------|-----------|
--12----14----|--12----11----|--12----14-----||-----------|-----------|
--------------|--------------|---------------||-----------|-----------|


  H           S S S S S S S S    H           H         
-----------|------------------|-----------|-----------|
-----------|------------------|-----------|-----------|
-----------|--9-9-x-9-9-9-x-9-|-----------|-----------|
-----------|--9-9-x-9-9-9-x-9-|-----------|-----------|
-----------|--7-7-x-7-7-7-x-7-|-----------|-----------|
-----------|------------------|-----------|-----------|


   S  S  S  S  S  S  S  S     S  S  S  S  S  S  S  S  
--------------------------|--------------------------|
--------------------------|--------------------------|
--11-11--x-11-11-11--x-11-|--11-11--x-11-11-11--x-11-|
--11-11--x-11-11-11--x-11-|--11-11--x-11-11-11--x-11-|
---9--9--x--9--9--9--x--9-|---9--9--x--9--9--9--x--9-|
--------------------------|--------------------------|


     S  S  S  S  S  S  S  S     S  S  S  S  S S S S     S  S  S  S  S  S  S  S  
|---------------------------|-----------------------|--------------------------|
|---------------------------|-----------------------|--------------------------|
|*--------------------------|-----------------------|--11-11--x-11-11-11--x-11-|
|*--12-12--x-12-12-12--x-12-|--11-11--x-11-11-9-x-7-|--11-11--x-11-11-11--x-11-|
|---12-12--x-12-12-12--x-12-|--11-11--x-11-11-9-x-7-|---9--9--x--9--9--9--x--9-|
|---10-10--x-10-10-10--x-10-|---9--9--x--9--9-7-x-5-|--------------------------|


  S S S S S S S S     S  S  S  S  S  S  S  S     S  S  S  S  S S S S  
------------------|--------------------------|-----------------------|
------------------|--------------------------|-----------------------|
--9-9-x-9-9-9-x-9-|--------------------------|-----------------------|
--9-9-x-9-9-9-x-9-|--12-12--x-12-12-12--x-12-|--11-11--x-11-11-9-x-7-|
--7-7-x-7-7-7-x-7-|--12-12--x-12-12-12--x-12-|--11-11--x-11-11-9-x-7-|
------------------|--10-10--x-10-10-10--x-10-|---9--9--x--9--9-7-x-5-|


   S  S  S  S  S  S  S  S     S  S  S  S  S  S  S  S    
--------------------------|---------------------------||
--------------------------|---------------------------||
--11-11--x-11-11-11--x-11-|--11-11--x-11-11-11--x-11-*||
--11-11--x-11-11-11--x-11-|--11-11--x-11-11-11--x-11-*||
---9--9--x--9--9--9--x--9-|---9--9--x--9--9--9--x--9--||
--------------------------|---------------------------||


   S  S  S  S  S  S  S  S     S  S  S  S  S S S S     S  S  S  S  S  S  S  S  
--------------------------|-----------------------|--------------------------|
--------------------------|-----------------------|--------------------------|
--------------------------|-----------------------|--11-11--x-11-11-11--x-11-|
--12-12--x-12-12-12--x-12-|--11-11--x-11-11-9-x-7-|--11-11--x-11-11-11--x-11-|
--12-12--x-12-12-12--x-12-|--11-11--x-11-11-9-x-7-|---9--9--x--9--9--9--x--9-|
--10-10--x-10-10-10--x-10-|---9--9--x--9--9-7-x-5-|--------------------------|


  S S S S S S S S     S  S  S  S  S  S  S  S     S  S  S  S  S S S S  
------------------|--------------------------|-----------------------|
------------------|--------------------------|-----------------------|
--9-9-x-9-9-9-x-9-|--------------------------|-----------------------|
--9-9-x-9-9-9-x-9-|--12-12--x-12-12-12--x-12-|--11-11--x-11-11-9-x-7-|
--7-7-x-7-7-7-x-7-|--12-12--x-12-12-12--x-12-|--11-11--x-11-11-9-x-7-|
------------------|--10-10--x-10-10-10--x-10-|---9--9--x--9--9-7-x-5-|


   S  S  S  S  S  S  S  S    S S S S S S S S       S  S  S  S  S  S  S  S  
--------------------------|------------------||---------------------------|
--------------------------|------------------||---------------------------|
--11-11--x-11-11-11--x-11-|------------------||*--11-11--x-11-11-11--x-11-|
--11-11--x-11-11-11--x-11-|--4-4-x-4-4-4-x-4-||*--11-11--x-11-11-11--x-11-|
---9--9--x--9--9--9--x--9-|--4-4-x-4-4-4-x-4-||----9--9--x--9--9--9--x--9-|
--------------------------|--2-2-x-2-2-2-x-2-||---------------------------|


  S S S S S S S S       S  S  S  S  S  S  S  S    H         
-------------------||--------------------------|-----------|
-------------------||--------------------------|-----------|
------------------*||--11-11--x-11-11-11--x-11-|-----------|
--4-4-x-4-4-4-x-4-*||--11-11--x-11-11-11--x-11-|--4--------|
--4-4-x-4-4-4-x-4--||---9--9--x--9--9--9--x--9-|--4--------|
--2-2-x-2-2-2-x-2--||--------------------------|--2--------|


     S  S  S  S  S  S  S  S     S  S  S  S  S  S  S S    S S S S S S S S  
|---------------------------|-------------------------|------------------|
|---------------------------|-------------------------|------------------|
|*--------------------------|-------------------------|------------------|
|*--11-11-11-11-11-11-11-11-|--12-12-12-12-12-11-11-9-|--7-7-7-7-7-7-7-7-|
|---11-11-11-11-11-11-11-11-|--12-12-12-12-12-11-11-9-|--7-7-7-7-7-7-7-7-|
|----9--9--9--9--9--9--9--9-|--10-10-10-10-10--9--9-7-|--5-5-5-5-5-5-5-5-|


  S S S S S S S T T        E   E   E   E      E   E   E   E   
---------------------||-------------------|------------------|
---------------------||-------------------|------------------|
--------------------*||*------------------|------------------|
--9-9-9-9-9-9-9-9-9-*||*------------------|------------------|
--9-9-9-9-9-9-9-9-9--||---12--11--12--14--|--12--11--12--14--|
--7-7-7-7-7-7-7-7-7--||-------------------|------------------|


   E   E   E   E      E   E   E   E   3x   E   E   E   E      E   E   E   E   
------------------|-------------------||------------------|------------------|
------------------|-------------------||------------------|------------------|
------------------|------------------*||------------------|------------------|
------------------|------------------*||------------------|------------------|
--12--11--12--14--|--12--11--12--14---||--12--11--12--14--|--12--11--12--14--|
------------------|-------------------||------------------|------------------|


   E   E   E   E      H          
------------------|------------||
------------------|------------||
------------------|------------||
------------------|------------||
--12--11--12--14--|--12--------||
------------------|------------||
comments
We did not receive enough feedback on this tab! Please rate:
print report bad tab
1 2 3 4 5
I want to post or [tab]
guest
You may want to rate the tab now too:
select rating
Please do not post tabs as comments. Select "correction" instead!