Oops, an error
Loading. Please wait.

Drown In You Tab

ver2
ver2

Whole song

More versions @911Tabs.com
535 views 1 this week
no commentswrite comment
1 2 3 4 5
please rate
Autoscroll
+/-
esc
set tempo
stop
Contributor
WARNING: You are trying to view
                                    content from Ultimate-Guitar.com
                                    in an unauthorized application,
                                    which is prohibited.

                                    Please use an official Ultimate
                                    Guitar Tabs application for iPhone,
                                    iPad or Android to access legitimate
                                    chords, guitar, bass, and drum tabs
                                    from Ultimate-Guitar.com database.

                                    Type "ultimate guitar tabs" in Apple
                                    App Store's or Android Market's
                                    search to find the application.
Drown In You
Daughtry
On the game- Batman: Arkham City

UPDATE--11/29/12: I just started tabbing some of the solo and I have most of the bridge ready

Please Rate and give me any more parts you figure out--send it to my email in 
Courier New font--jedynak.alex@hotmail.com

Intro
Guitar 1
|-----------------10------------||-----------------10------------|
|------10-----------------------||------10-----------------------|
|----------9--10------9--10--7--||----------9--10------9--10--7--|
|---0---------------------------||---0---------------------------| 
|-------------------------------||-------------------------------|
|-------------------------------||-------------------------------|

Guitar 2
|-------------------------------||-------------------------------|
|-------------------------------||-------------------------------| 
|-------------------------------||-------------------------------|
|-------------------------------||-------------------------------|
|-------------------------------||-------------------------------|
|-------------------------------||---------------------------[0/-|

Verse
Guitar 1
|-----------------10------------||---------------------------10--|
|------10-----------------------||-------------------------------|
|----------9--10------9--10--7--||--------9--10--------7---------|
|---0---------------------------||------------------------7------|
|-------------------------------||-------------------------------|
|-------------------------------||-------------------------------|

Guitar 2
|-------------------------------||-------------------------------|
|-------------------------------||-------------------------------| 
|-------------------------------||-------------------------------|
|-------------------------------||-------------------------------|
|-------------------------------||-------------------------------|
|-/12]--------------------------||--[10]----------[8]------------|

Guitar 1
|-----------------10------------||---------------------------10--|
|------10-----------------------||-------------------------------|
|----------9--10------9--10--7--||--------9--10--------7---------|
|---0---------------------------||------------------------7------|
|-------------------------------||-------------------------------|
|-------------------------------||-------------------------------|

Guitar 2
|-------------------------------||-------------------------------|
|-------------------------------||-------------------------------| 
|-------------------------------||-------------------------------|
|-------------------------------||-------------------------------|
|-------------------------------||-------------------------------|
|-[12]--------------------------||--[10]----------[8]------------|


Guitar 1
|-----------------10------------||---------------------------10--|
|------10-----------------------||-------------------------------|
|----------9--10------9--10--7--||--------9--10--------7---------|
|---0---------------------------||------------------------7------|
|-------------------------------||-------------------------------|
|-------------------------------||-------------------------------|
Guitar 2
|-------------------------------||-------------------------------|
|-------------------------------||-------------------------------| 
|-------------------------------||-------------------------------|
|-------------------------------||-------------------------------|
|-------------------------------||-------------------------------|
|-[12]--------------------------||--[10]----------[8]------------|

Guitar 1
|----------10----------10-------||--------8----------------------|
|------10------10----------10---||-----8-----8-------------------|
|--10--------------10-----------||--8-----------8----------------|
|-------------------------------||-------------------------------|
|-------------------------------||-------------------------------|
|-------------------------------||-------------------------------|

Guitar 2
|-------------------------------||-------------------------------|
|-------------------------------||-------------------------------|
|-------------------------------||-------------------------------|
|-------------------------------||-------------------------3-2-0-|
|-------------------------------||-----------------------------0-|
|-[3]---------------------------||----------------[3br3br3]----0-|

Guitar 1
|-----------------10------------||---------------------------10--|
|------10-----------------------||-------------------------------|
|----------9--10------9--10--7--||--------9--10--------7---------|
|---0---------------------------||------------------------7------|
|-------------------------------||-------------------------------|
|-------------------------------||-------------------------------|
Guitar 2
|-------------------------------||-------------------------------|
|-------------------------------||-------------------------------| 
|-------------------------------||-----------------------------2-|
|-------------------------------||-----------------------------0-|
|-------------------------------||-----------------------------0-|
|-[12]--------------------------||--[10]----------[8]----------0-|

Guitar 1
|-----------------10------------||---------------------------10--|
|------10-----------------------||-------------------------------|
|----------9--10------9--10--7--||--------9--10--------7---------|
|---0---------------------------||------------------------7------|
|-------------------------------||-------------------------------|
|-------------------------------||-------------------------------|

Guitar 2
|-------------------------------||-------------------------------|
|-------------------------------||-----------------------------3-| 
|-------------------------------||-----------------------------2-|
|-------------------------------||-------------------------3-2-0-|
|-------------------------------||-----------------------------0-|
|-[12]--------------------------||--[10]----------[8]----------0-|

Guitar 1
|-----------------10------------||---------------------------10--|
|------10-----------------------||-------------------------------|
|----------9--10------9--10--7--||--------9--10--------7---------|
|---0---------------------------||------------------------7------|
|-------------------------------||-------------------------------|
|-------------------------------||-------------------------------|

Guitar 2
|-------------------------------||-------------------------------|
|-------------------------------||-------------------------------| 
|-------------------------------||-------------------------------|
|-------------------------------||-------------------------------|
|-------------------------------||-------------------------------|
|-[12]--------------------------||--[10]----------[8]------------|

Pre-Chorus
Guitar 1
|------------------------------------|
|------------------------------------|
|------------------------------------|
|--5-5-5-5-5-5-5-5--7-7-7-7----------|
|--5-5-5-5-5-5-5-5--7-7-7-7----------|
|--5-5-5-5-5-5-5-5--7-7-7-7--0-2-3-0-|
 pm . . . . . . . .  . . . .

Guitar 2
|------------------------------------|
|------------------------------------|
|------------------------------------|
|--5-5-5-5-5-5-5-5--7-7-7-7----------|
|--5-5-5-5-5-5-5-5--7-7-7-7----------|
|--5-5-5-5-5-5-5-5--7-7-7-7----------|
 pm . . . . . . . .  . . . . 


Chorus
Both Guitars
|-----------------------------------------|
|-----------------------------------------|
|-----------------------------------------|
|--8-8-8-8--10-10-10-10--0-0-0-0-0-0-0-0--|
|--8-8-8-8--10-10-10-10--0-0-0-0-0-0-0-0--|
|--8-8-8-8--10-10-10-10--0-0-0-0-0-0-0-0--|

|-----------------------------------------|
|-----------------------------------------|
|-----------------------------------------|
|--8-8-8-8--10-10-10-10--0-0-0-0-0-0-0-0--|
|--8-8-8-8--10-10-10-10--0-0-0-0-0-0-0-0--|
|--8-8-8-8--10-10-10-10--0-0-0-0-0-0-0-0--|

|-----------------------------------------|
|-----------------------------------------|
|-----------------------------------------|
|--8-8-8-8--10-10-10-10-------12-------10-|
|--8-8-8-8--10-10-10-10-------12-------10-|
|--8-8-8-8--10-10-10-10-------12-------10-|

|-------------------------------------------------|
|-------------------------------------------------|
|-------------------------------------------------|
|--8-8-8-8-8-8-8-8--10-10-10-10-------------------|
|--8-8-8-8-8-8-8-8--10-10-10-10---------5-7-8-5---|
|--8-8-8-8-8-8-8-8--10-10-10-10-------------------|

Post-Chorus
Both Guitars
|-------------------------------------|
|-------------------------------------|
|-----------10-----------10-------10--|
|--x-x-x-x--x---x-x-x-x--x---x-x--x---|
|--x-x-x-x--8---x-x-x-x--8---x-x--8---|
|--x-x-x-x------x-x-x-x------x-x------|

|-------------------------------------|
|-------------------------------------|
|-----------9------------9--------9---|
|--x-x-x-x--x---x-x-x-x--x---x-x--x---|
|--x-x-x-x--7---x-x-x-x--7---x-x--7---|
|--x-x-x-x------x-x-x-x------x-x------|

|-------------------------------------|
|-------------------------------------|
|-----------12-----------12-------12--|
|--x-x-x-x--x---x-x-x-x--x---x-x--x---|
|--x-x-x-x--10--x-x-x-x--10--x-x--10--|
|--x-x-x-x------x-x-x-x------x-x------|

|--------------------------------------------|
|--------------------------------------------|
|-----------10-----------10------------------|
|--x-x-x-x--x---x-x-x-x--x----6h7-6h7-6h7~~--|
|--x-x-x-x--8---x-x-x-x--8-------------------|
|--x-x-x-x------x-x-x-x----------------------|

Verse 2
Guitar 1
|-----------------10------------||---------------------------10--|
|------10-----------------------||-------------------------------|
|----------9--10------9--10--7--||--------9--10--------7---------|
|---0---------------------------||------------------------7------|
|-------------------------------||-------------------------------|
|-------------------------------||-------------------------------|
Guitar 2
|-------------------------------||-------------------------------|
|-------------------------------||-------------------------------| 
|-------------------------------||-------------------------------|
|-------------------------------||-------------------------------|
|-------------------------------||-------------------------------|
|-[12]--------------------------||--[10]----------[8]----------0-|

Guitar 1
|-----------------10------------||---------------------------10--|
|------10-----------------------||-------------------------------|
|----------9--10------9--10--7--||--------9--10--------7---------|
|---0---------------------------||------------------------7------|
|-------------------------------||-------------------------------|
|-------------------------------||-------------------------------|

Guitar 2
|-------------------------------||-------------------------------|
|-------------------------------||-----------------------------3-| 
|-------------------------------||-----------------------------2-|
|-------------------------------||-------------------------3-2-0-|
|-------------------------------||-----------------------------0-|
|-[0]-----------------------[5]-||--[10]--[5]--[7]--[8]--------0-|

Guitar 1
|-----------------10------------||---------------------------10--|
|------10-----------------------||-------------------------------|
|----------9--10------9--10--7--||--------9--10--------7---------|
|---0---------------------------||------------------------7------|
|-------------------------------||-------------------------------|
|-------------------------------||-------------------------------|

Guitar 2
|-------------------------------||-------------------------------|
|-------------------------------||-------------------------------| 
|-------------------------------||-------------------------------|
|-------------------------------||-------------------------------|
|-------------------------------||-------------------------------|
|-[0]---------------------------||--[10]------------[8]----------|


Pre-Chorus
Guitar 1
|------------------------------------|
|------------------------------------|
|------------------------------------|
|--5-5-5-5-5-5-5-5--7-7-7-7----------|
|--5-5-5-5-5-5-5-5--7-7-7-7----------|
|--5-5-5-5-5-5-5-5--7-7-7-7--0-2-3-0-|
 pm . . . . . . . .  . . . .

Guitar 2
|------------------------------------|
|------------------------------------|
|------------------------------------|
|--5-5-5-5-5-5-5-5--7-7-7-7----------|
|--5-5-5-5-5-5-5-5--7-7-7-7----------|
|--5-5-5-5-5-5-5-5--7-7-7-7----------|
 pm . . . . . . . .  . . . . 


Chorus
Both Guitars
|-----------------------------------------|
|-----------------------------------------|
|-----------------------------------------|
|--8-8-8-8--10-10-10-10--0-0-0-0-0-0-0-0--|
|--8-8-8-8--10-10-10-10--0-0-0-0-0-0-0-0--|
|--8-8-8-8--10-10-10-10--0-0-0-0-0-0-0-0--|

|-----------------------------------------|
|-----------------------------------------|
|-----------------------------------------|
|--8-8-8-8--10-10-10-10--0-0-0-0-0-0-0-0--|
|--8-8-8-8--10-10-10-10--0-0-0-0-0-0-0-0--|
|--8-8-8-8--10-10-10-10--0-0-0-0-0-0-0-0--|

|-----------------------------------------|
|-----------------------------------------|
|-----------------------------------------|
|--8-8-8-8--10-10-10-10-------12-------10-|
|--8-8-8-8--10-10-10-10-------12-------10-|
|--8-8-8-8--10-10-10-10-------12-------10-|

|-------------------------------------------------|
|-------------------------------------------------|
|-------------------------------------------------|
|--8-8-8-8-8-8-8-8--10-10-10-10-------------------|
|--8-8-8-8-8-8-8-8--10-10-10-10---------5-7-8-5---|
|--8-8-8-8-8-8-8-8--10-10-10-10-------------------|


Bridge
Both Guitars
|-----------------------------------|
|-----------------------------------| 
|-----------------------------------|
|-5-5-5-5-5-5-5-5--3-3-3-3-3-3-3-3--|
|-5-5-5-5-5-5-5-5--3-3-3-3-3-3-3-3--|
|-5-5-5-5-5-5-5-5--3-3-3-3-3-3-3-3--|

|-------------------------------------|
|-------------------------------------|
|-----------10-----------10-------10--|
|--x-x-x-x--x---x-x-x-x--x---x-x--x---|
|--x-x-x-x--8---x-x-x-x--8---x-x--8---|
|--x-x-x-x------x-x-x-x------x-x------|

|-------------------------------------|
|-------------------------------------|
|-----------9------------9--------9---|
|--x-x-x-x--x---x-x-x-x--x---x-x--x---|
|--x-x-x-x--7---x-x-x-x--7---x-x--7---|
|--x-x-x-x------x-x-x-x------x-x------|

Guitar 1
|------------------------------------|
|------------------------------------| 
|------------------------------------|
|--5-5-5-5-5-5-5-5--3-3-3-3-3-3-3-3--|
|--5-5-5-5-5-5-5-5--3-3-3-3-3-3-3-3--|
|--5-5-5-5-5-5-5-5--3-3-3-3-3-3-3-3--|

|------------------------------------|
|------------------------------------|
|------------------------------------|
|--1-1-1-1-1-1-1-1--7-7-7-7-7-7-7-7--|
|--1-1-1-1-1-1-1-1--7-7-7-7-7-7-7-7--|
|--1-1-1-1-1-1-1-1--7-7-7-7-7-7-7-7--|

Guitar 2
|------------------------------------|
|------------------------------------| 
|------------------------------------|
|--5-5-5-5-5-5-5-5--3-3-3-3-3-3-3-3--|
|--5-5-5-5-5-5-5-5--3-3-3-3-3-3-3-3--|
|--5-5-5-5-5-5-5-5--3-3-3-3-3-3-3-3--|

|------------------------------------|
|------------------------------------|
|------------------------------------|
|--1-1-1-1-1-1-1-1------------//-----|
|--1-1-1-1-1-1-1-1------------//-----|
|--1-1-1-1-1-1-1-1-------------------|

Solo
Guitar 1
|---------------------------------------------|
|---------------------------------------------|
|---------------------------------------------|
|---8-8-8-8---10-10-10-10---0-0-0-0-0-0-0-0---|
|---8-8-8-8---10-10-10-10---0-0-0-0-0-0-0-0---|
|---8-8-8-8---10-10-10-10---0-0-0-0-0-0-0-0---|

Guitar 2
|--12------------------12--------14-----------|
|-----14-14--12-14-14-----14-14-----12-14-14--|
|---------------------------------------------|
|---------------------------------------------|
|---------------------------------------------|
|---------------------------------------------|

Guitar 1
|-------------------------------------------------|
|-------------------------------------------------|
|-------------------------------------------------|
|--8-8-8-8--10-10-10-10--12-12-12-12-12-12-12-12--|
|--8-8-8-8--10-10-10-10--12-12-12-12-12-12-12-12--|
|--8-8-8-8--10-10-10-10--12-12-12-12-12-12-12-12--|

Guitar 2
|----12-11--11-12----11-12-11----12p11p9--9p7-----|
|---------------------------------------------7---|
|-------------------------------------------------|
|-------------------------------------------------|
|-------------------------------------------------|
|-------------------------------------------------|
comments
We did not receive enough feedback on this tab! Please rate:
1 2 3 4 5
I want to post or [tab]
guest
You may want to rate the tab now too:
select rating
Please do not post tabs as comments. Select "correction" instead!