Oops, an error
Loading. Please wait.

My Way Down Tab

ver1
ver1

Whole song

Interactive

More versions @911Tabs.com
2,810 views 9 this week
2 commentsread comments
1 2 3 4 5
excellent!
x 2
add to favorites launch autoscroll
font size
0
reset
Autoscroll
+/-
esc
set tempo
stop
Contributor
Difficulty
Tuning
Tabbers playing skills
intermediate
D# G# C# F# A# D#
advanced ++
WARNING: You are trying to view
                                    content from Ultimate-Guitar.com
                                    in an unauthorized application,
                                    which is prohibited.

                                    Please use an official Ultimate
                                    Guitar Tabs application for iPhone,
                                    iPad or Android to access legitimate
                                    chords, guitar, bass, and drum tabs
                                    from Ultimate-Guitar.com database.

                                    Type "ultimate guitar tabs" in Apple
                                    App Store's or Android Market's
                                    search to find the application.
-------------------------------------------------------------------------------
                             MY WAY DOWN - Chris Duarte Group
-------------------------------------------------------------------------------


Tabbed by: Isaias Garcia

Tuning: 1/2 step down


      Intro                                                             
                   ^  ^    ^      ^                                 
      H        E   E  E    E      E  S S  E  S  S  E   E   E   E    
D#||--------------------------|----------11--------8--10-----------|
A#||--------------------------|----------11--------8--10-----------|
F#||--------------------------|--------------x-(0)-8--10---x-------|
C#||------------------8b--10--|--10--x-x-----x-------------x--10~--|
G#||--------------10----------|------------------------------------|
D#||------------------8-------|---8--------------------------------|


   E  E  E   S  S  S S  S  S    E.  S     E    S  S S S S S E   E   E    E    
------8-----10-11-10-8----------8---8-|--------------------------------------|
------8-----10-11-10-8----------8---8-|--------------------------------------|
------8--x--10-11-10-8-------8g10-----|--------------------------------------|
---L-----x----------------------------|--10~--------8-8-8-8-8--10-------10~--|
-----------------------10-10----------|--------x-10----------------(0)-------|
--------------------------------------|--------------------------------------|


   E    S   S  S S  E   E   E    S E.    
----------------------------------------|
-----------------8---------------x------|
-------10s-11-10-8---------10b---x-8b---|
---L~--------------10--10---------------|
----------------------------------------|
----------------------------------------|


   ^                                     
   E   S  S S S  S  S  E   E   S  S E    
----------------------11----------------|
----------------------11------------8~--|
-------------------------------x--x-8~--|
--10--------8-8-10-10----------x--x-----|
------10-10---------------10------------|
----------------------------------------|


  E   E   S  S  S   S  S S  S   S     E.  S     E  S S S S E  E   E  E   E   
-----10--------10s-11-10-8------------8---8-|-------------------------------|
--L--10--------10s-11-10-8------------8---8-|-------------------------------|
--L--10---x--x-10s-11-10-8-----(0)-8g10---8-|-------------------------------|
----------x--x------------------------------|--10--x-x-8-8-8--8--10--x--10--|
--------------------------------------------|-------------------------------|
---------------------------(0)--------------|-------------------------------|


   E   S  S S E.    E   E     E.  S     E   E   E  S S E   E  E   E    
------------------------------8---8-|------11--10------8--10----------|
------------------------------8---8-|------11--10------8--10----------|
---------------------------8g10---8-|----------10--x-x-8--10----------|
------------------------------------|--10----------x-x-----------10~--|
------------6-6---6g8--10-----------|---------------------------------|
--(0)--6h-8-------------------------|---------------------------------|


   E  E  E   S   S  S S  S  S    E.  S     E.  S S S S S E   E  E   E    
------8-----10h-11-10-8----------8---8-|--------------------------------|
------8-----10h-11-10-8----------8---8-|--------------------------------|
------8-----10h-11-10-8-------8g10-----|--------------------------------|
---L-----x-----------------------------|--10---8-8-8-8-8-8--10-----10~--|
------------------------10-10----------|--------------------------------|
---------------------------------------|--------------------------------|


   S   S   S   S  S S  E   E   E   S E.    
------------------------------------------|
------------------------------------------|
-------x--10s-12-10-8---------10b----8b---|
---L~-----------------10--10-------x------|
------(0)---------------------------------|
------------------------------------------|


                       ^               
   E   S  S S S  S  S  E   E  S S E    
----------------------11--------------|
----------------------11----------8~--|
----------------------------------8~--|
--10--------8-8-10-10---------x-x-----|
------10-10---------------10----------|
--------------------------------------|


  E    E  S  S   S   S  S S  S  S    E.  S     E.   S S S S S E  E  S S S  S  
------10--------10h-11-10-8----------8---8-|---------------------------------|
--L~--10--------10h-11-10-8----------8---8-|---------------------------------|
--L~--10--------10h-11-10-8-------8g10---8-|---------------------------------|
----------------------------10-10----------|--10------8-8-8-8----------------|
------------(0)----------------------------|-------10---------8--6--x-x-8h-9-|
-------------------------------------------|---------------------------------|


                                      Verse 1                             
  S  S S S E  S S E   E   S E.        E   S  S S S  S  S  Q    Q     
---------------------------------||----------------------11---------|
---------------------------------||----------------------11---------|
---------------------10b----8b---||---------------------------------|
---------------------------------||--10--------8-8-10-10------------|
--8p-6-x-6----x-x----------------||------10-10----------------------|
-----------8--x-x----------------||---------------------------------|


  E   E  E   S  S     E.  S  S S  S  S      Q    Q    E  S  S   S S  S  S  
----------------------8---8--8----------|---------------------------------|
----------------------8---8--8----------|----------------------10-8-------|
---------------(0)-8g10-----10-8----(0)-|------------------(0)-10-8-------|
---------8--10-------------------10-----|--10------------8----------10p-8-|
-----10---------------------------------|---------------------------------|
----------------------------------------|---------------------------------|


   Q    Q    H           E   E   E   S  S E   E  Q     
----------------------|---------11--------8--10-------|
----------------------|---------11--------8--10-------|
----------------------|-------------------8--10-------|
--10------------------|-------------------------------|
----------------------|-----10------10-10-------------|
----------------------|-------------------------------|


             PM PM                                                    
  E   E  E   S  S    E.  S  S  S  E      Q    Q    E  E   S S  S  S   
---------------------8---8--8--------|-------------------10-8--------|
---------------------8---8--8--------|-------------------10-8--------|
------------------8g10---8-10p-8-----|-------------------10-8----(0)-|
---------8---x-------------------10--|--10------------8-------10-----|
-----10------x-10--------------------|-------------------------------|
-------------------------------------|-------------------------------|


   Q    Q    E  S S  S S  E     S  E  S Q    E  E  S S S S  
-----------------------------|--7s-8--8---------8--8-8-----|
-----------------------------|--7s-8--8---------8--8-8-----|
-----------------------------|--7s-8--8---------8--8-8-----|
--10------------8-8-10-8-----|--6s-7--7---------7--7-7-----|
-------------------------10--|--7s-8--8---------8--8-8-8-8-|
-----------------------------|-----------------------------|


  S  E  S Q    E  E  S S  S  S    E   E   Q    Q    E.   S  
--7s-8--8---------8--8-8-------|---------11----------------|
--7s-8--8---------8--8-8-------|---------11----------------|
--7s-8--8---------8--8-8-------|---------------------------|
--6s-7--7---------7--7-7-------|--8--10--------------------|
--7s-8--8---------8--8-8-10-10-|------------------------10-|
-------------------------------|---------------------------|


  E   E  Q    E  S  S   S S  S   S     S  E  S Q    E  E  S S  S   S   
-----------------------10-8---------|--7s-8--8---------8--8-8---------|
-----------------8-(0)-10-8---------|--7s-8--8---------8--8-8---------|
-----------------8-----10-8---------|--7s-8--8---------8--8-8---------|
--8--10-----------------------------|--6s-7--7---------7--7-7---------|
------------------------------------|--7s-8--8---------8--8-8---------|
----------------------------(0)-(0)-|-------------------------(0)-(0)-|


  S  E  S Q    E  E  S S  E       Q    E   E   Q.      E   
--7s-8--8---------8--8-8------|--10-------10--10------10--|
--7s-8--8---------8--8-8------|--10-------10--10------10--|
--7s-8--8---------8--8-8------|--10-------10--10------10--|
--6s-7--7---------7--7-7------|---9--------9---9-------9--|
--7s-8--8---------8--8-8------|--10-------10--10------10--|
-------------------------(0)--|---------------------------|


                                        Chorus 1                               
  E   E  E   E   E   E   S  S  S  S     E   E  E   E   E    E   S S E    
----------------10--10--10-10-------||----------------11----------------|
-----11-----11--11--11--11-11--x--x-||----------------11------------8~--|
-----10-----10--10--10--10-10--x--x-||--------------------------x-x-8~--|
------------------------------------||---------8--10------------x-x-----|
-----10-----10--10--10--10-10-------||-----10-------------(10)----------|
------------------------------------||----------------------------------|


  E    E  S  S   S   S  S S  S  S E   E     Q     E   S  S E   E  S S  S   S  
------10--------10s-11-10-8--------------|-------11--------8--10----x-10s-11-|
--L~--10--------10s-11-10-8--------------|-------11--------8--10----x-10s-11-|
--L~--10----(0)-10s-11-10-8--------------|-----------------8--10----x-10s-11-|
----------------------------------8--10--|-----------------------------------|
----------------------------10-10--------|-----------10-10-------------------|
-----------------------------------------|-----------------------------------|


                                          ^                                    
   S S  S  S    E.  S  E   E   S E.       E   S  S S S  S  S  E   E  S  S E    
--10-8----------8---8-----------------|----------------------11---------------|
--10-8----------8---8-----------------|----------------------11-----------8~--|
--10-8-------8g10---8-----10b----8b---|-----------------------------------8~--|
----------------------10--------------|--10--------8-8-10-10---------x--x-----|
-------10-10--------------------------|------10-10---------------10-----------|
--------------------------------------|---------------------------------------|


  E    E  E   S   S  S S  S  S E   E     E   E    E   S  S E   E  E   S   S  
------10-----10s-11-10-8--------------|----------11--------8--10-----10s-11-|
--L~--10-----10s-11-10-8--------------|----------11--------8--10-----10s-11-|
--L~--10-----10s-11-10-8--------------|--------------------8--10-----10s-11-|
-------------------------10----8--10--|-------------------------------------|
----------------------------10--------|-----(0)------10-10------------------|
--------------------------------------|-------------------------------------|


                                                Guitar Solo 1                            
                          ^                                                 
   S E  S  S S  S  S  E   E   S  S  S   S       Q       E  E  E   E  E   E   
--10-8--8--8-------------------------------||--11---------------------------|
--10-8--8--8-8-----------------------------||--11---------------------------|
--10-8--8-10-8---------------------(0)-(0)-||-------------------------------|
---------------10p-8-10--10--10-10---------||--------------8--L--10--8--10--|
-------------------------------------------||--------8g10-------------------|
-------------------------------------------||-------------------------------|


     E   S   S     E   S   S     E  E   E.   S   
-----8-------------8-------------8------8---(8)-|
-----8-------------8-------------8--8---8---(8)-|
--8g10--(0)-(0)-8g10--(0)-(0)-8g10--8--10----8--|
------------------------------------------------|
------------------------------------------------|
------------------------------------------------|


   Q      E   E     S  S   S   S S  S  S S  
-------------------------------------------|
---------11-------------------10-----------|
-------------10br--10p-8p-(0)-10---(0)-8-9-|
--10~--------------------------------------|
-------------------------------------------|
-------------------------------------------|


                ^       ^           ^                                         
  S S  S  S E   E    S  S  S  S E   E      E   E   E.  S S  E  S   S  S S  S  
--8------------------------------------|------11--10---8---11--8h-10---------|
---------------------------------------|------11--10---8---10-----10---------|
----8----------------------------------|------11--10---8----------10----8h-9-|
------10----8--10~---L~-8-------8--10--|--10-------------------------10------|
---------10---------------10-10--------|-------------------------------------|
---------------------------------------|-------------------------------------|


  S S S S  S   S  S  S   E    S  S  S   S  S  S  
----8------------11-----------------------------|
--8---8-8-11s-13----13~--L~--11s-8--------------|
-----------------------------------10b-10p-8----|
---------------------------------------------10-|
------------------------------------------------|
------------------------------------------------|


                              |--3--|  
  Q      S  S  E  E   E    E  S   S S  
--------------------------------------|
--------------------------------------|
--8~--------------------------------8-|
--------10p-8-----8--10~---L--8h-10---|
--------------10----------------------|
--------------------------------------|


   S   S  S  S  S  E  S  S S  E      S  S S  S    E  E  S S S S E   E  E   E   
---------------------------8-------------------|-----8--8-8-8-8-7S--8--7S--8--|
------------------10---------------------------|-----8--8-8-8-8-7S--8--7S--8--|
--10h-11-10p-8----10--8h-9---(0)---------------|-----8--8-8-8-8-7S--8--7S--8--|
---------------10-------------------------8----|-----7--7-7-7-7-6S--7--6S--7--|
----------------------------------8g10-10---10-|--8--8--8-8-8-8-7S--8--7S--8--|
-----------------------------------------------|------------------------------|


  E  E  S S S S E   E  S  S  S S  
--L--8--8-8-8-8-7S--8------------|
--L--8--8-8-8-8-7S--8------------|
--L--8--8-8-8-8-7S--8------------|
--L--7--7-7-7-7-6S--7--------7---|
--L--8--8-8-8-8-7S--8--x-(8)---8-|
---------------------------------|


                           |---3--|              
   E   E   E   S S  S   S  S   S  S   S  S  S S  
--11--11---8--10-8------------------------------|
--10--10b--8--10-8-----11------------10---------|
-----------8--10-8-10b----12p-10-(0)-10-(0)-8-9-|
------------------------------------------------|
------------------------------------------------|
------------------------------------------------|


  S S   S  S E   E  S S S S S S  S S    E  E  S S S S E   E  E  E   
--8----------------------------------|-----8--8-8-8-8-7S--8-----8--|
-------------------------------------|-----8--8-8-8-8-7S--8-----8--|
----8b-------------------------------|-----8--8-8-8-8-7S--8-----8--|
-------10----8--10--8-8-8-8---8------|-----7--7-7-7-7-6S--7-----7--|
----------10--------------------10-9-|--8--8--8-8-8-8-7S--8-----8--|
-------------------------------------|-----------------------------|


  E  E  S S S S E   E  E  E      Q    E   E   Q     Q      
--L--8--8-8-8-8-7S--8-----9--|--10-------10--10-----------|
--L--8--8-8-8-8-7S--8-----9--|--10-------10--10----(0)----|
--L--8--8-8-8-8-7S--8-----9--|--10-------10--10----(0)----|
--L--7--7-7-7-7-6S--7-----8--|---9--------9---9----(0)----|
--L--8--8-8-8-8-7S--8-----9--|--10-------10--10-----------|
-----------------------------|----------------------------|


   E  E   E   E   E   E   E   E      Q     Q     E   E   Q     
--10--9--10--11--12--11--12--13--|--15----15----14--15---L----|
--10--9--10--11--12--11--12--13--|--15----15----14--15---L----|
--10--9--10--11--12--11--12--13--|--15----15----14--15---L----|
---9--8---9--10--11--10--11--12--|--14----14----13--14---L----|
--10--9--10--11--12--11--12--13--|--15----15----14--15---L----|
---------------------------------|----------------------------|


   Q     Q     E   E   E   E      E   E    E.    S   E    E   S  E   S  
--15----15----14--15---L--15--|---L-------17---(17)------17--17-17--17-|
--15----15----14--15---L--15--|---L--(0)--16----16-------16--16-16--16-|
--15----15----14--15---L--15--|---L--(0)--15----15--(0)--15--15-15--15-|
--14----14----13--14---L--14--|---L------------------------------------|
--15----15----14--15---L--15--|---L------------------------------------|
------------------------------|----------------------------------------|


   E   S  S S  S  S  S   S  S  S   S    E    E    
--17--17-17---17-17-----17-17-17-----------------||
--16--16-16---16-16-----16-16-16-----------------||
--15--15-15---15-15-(0)-15-15-15-(15)b-(0)--(0)--||
-------------------------------------------------||
-------------------------------------------------||
-------------------------------------------------||


   Guitar Solo 2                                                           
   E   E   Q    E  E   E   E      E   E    E   E    H          
------------------------------|-------------------------------|
--11b--L\----------8--11b--8--|--11--11b--11--11b---L~--------|
------------------------------|-------------------------------|
------------------------------|-------------------------------|
------------------------------|-------------------------------|
------------------------------|-------------------------------|


  S  S  S  S S  S  E    T  T   S  S   S S S   E   
--8----------8--------------------------8--------|
----11-----8---11-----------------------8--------|
-------10b--------10b--10p-8p-(0)-8h-10---8b-----|
---------------------------------------------10--|
-------------------------------------------------|
-------------------------------------------------|


  Q.       E    E   E   E    E       E    E   Q    E   E    E.    S  
---------------------------------|--11b---L\----------13b---Lb---11-|
---------------------------------|----------------------------------|
---------------------------------|----------------------------------|
--8b------10~---L----------------|----------------------------------|
-------------------10\-----------|----------------------------------|
------------------------5/--17\--|----------------------------------|


   Q      S  S  E  Q.       S  S     E    E    H          E.  S  
---------------11--Lb---------11-|--13b---Lb---L~---------L-----|
--13~----11-13-------------13----|----------------------------0-|
---------------------------------|----------------------------0-|
---------------------------------|----------------------------0-|
---------------------------------|------------------------------|
---------------------------------|------------------------------|


   S  E.    E.   S  Q.       E       Q.       E    Q.       E    
--13-11b----L--------------------|--13b------12b---Lb------11b--|
----------------11-13~-------L\--|------------------------------|
---------------------------------|------------------------------|
---------------------------------|------------------------------|
---------------------------------|------------------------------|
---------------------------------|------------------------------|


   E     S   S  E   E    E  S  S  S S  S  S  
--13br---Lb-11S-8--11b---L--8-------8-------|
------------------------------11p-8-------8-|
--------------------------------------10b---|
--------------------------------------------|
--------------------------------------------|
--------------------------------------------|


  S S  E    E   E   S S S   S E    S  S  
--8---11b---L--11b--8---8h-11-8~--------|
----8-----------------8-----------11p-8-|
----------------------------------------|
----------------------------------------|
----------------------------------------|
----------------------------------------|


   S   S  S  S Q      E   E    S  S S S  
------------------------------------8---|
----------------------------------8---8-|
--10b-10p-8----8~--------10b---Lb-------|
------------10-------10-----------------|
----------------------------------------|
----------------------------------------|


   S   S   S    S  S  S  S  S   S   S  S  S   S  S  E   
--11b-11b-11pb-11b-------8------------11-----------11--|
---------------------------(8)-11s-13----13~--L-13-----|
---------------------(0)-------------------------------|
---------------------(0)-------------------------------|
-------------------------------------------------------|
-------------------------------------------------------|


   Q.       E    Q.      E        Q       E.    S    Q      Q       
--13b------13b---L-----------|---13b------L----13b---L-----13b-----|
------------------------(0)--|--(13)b-----L---(13)b--L----(13)b----|
------------------------(0)--|-------------------------------------|
-----------------------------|-------------------------------------|
-----------------------------|-------------------------------------|
-----------------------------|-------------------------------------|


   E.    S  E    S  S  E    S  S  S  S  S S  
--13b---11-13b--13-11-13b--13-11----11------|
--13b---11-13b--13-11-13b--13-11-13----13-8-|
--------------------------------------------|
--------------------------------------------|
--------------------------------------------|
--------------------------------------------|


  E  E   S  S S S  S  S S S  S  S S S  
--8--8--------8-8-----8-8-8-------8-8-|
--8--8------8-8-8-11b-8-8-8-----8-8-8-|
--------10b-----------------10b-------|
--------------------------------------|
--------------------------------------|
--------------------------------------|


   S  S S  S S S  S  S S S  S  S  S  S S  S  
------8-8-10-8-8-------8-8-------------8-10-|
--11b-8-8-10-8-8-11b-8-8-8-----8-----8-8-10-|
---------------------------10b---10b--------|
--------------------------------------------|
--------------------------------------------|
--------------------------------------------|


                   |---3--|                        
   S  S  S S  S S  S   S  S  S  S  S S  E   S  S   
--11b---10-8-------------------------8------------|
--10b-8-10-8-11-8--------------10----8------------|
------------------11p-10p-8----10----8------8-10b-|
----------------------------10----10---10~--------|
--------------------------------------------------|
--------------------------------------------------|


   |---3--|                                       
   S  S   S   S  S   S  S  S  S   E   E   S E.    
-------------------------------------------------||
----------------(0)------------------------------||
--10p-8p-(0)-10-(0)-10p-8----(0)-----10b----8b---||
--------------------------10-(0)-10--------------||
-------------------------------------------------||
-------------------------------------------------||


   Verse 2                                                                     
   Q     S  S  S  S  Q    Q       E   E   S   S   S  S  S  S  E   E.   S  
--------11-11-11-11-11---------|-----------------11-11-------11--11---11-|
--------11-11-11-11-11---------|-----------------11-11-------11--11---11-|
-------------------------------|-----------------------------------------|
--10---------------------------|-----10----------------10-10-------------|
-------------------------------|---------(0)-(0)-------------------------|
-------------------------------|------8----------------------------------|


               ^                                      
  H        E   E   S  S  S  S     Q    Q    H         
------------------11-11-11-11-|--11------------------|
------------------11-11-11-11-|--11------------------|
------------------------------|----------------------|
--------------10--------------|----------------------|
------------------------------|----------------------|
------------------------------|----------------------|


                  ^                               ^   ^           
  E   E   E.   S  E   E   Q       E   E   E.   S  E   E   E.   S  
---------11---11-----11--11----|---------11---11---------11---11-|
---------11---11-----11--11----|---------11---11---------11---11-|
-------------------------------|---------------------------------|
-----10----------10------------|-----10----------10--10----------|
-------------------------------|---------------------------------|
------8------------------------|------8--------------------------|


      PM     ^     ^                                                    
  E   S  S   S  S  E   Q     E   S  S     Q    E   E   E   E  S  S S S  
----------------------11--------11-11-|--11----------------------------|
----------------------11--------11-11-|--11----------------------------|
--------(0)---------------------------|--------------------------------|
-----10-----10-10-10--------10--------|-------------------10--8--------|
--------------------------------------|-----------(0)-----------10-9-8-|
------8-------------------------------|--------------------------------|


  S  E  S Q    E  E  S S E     S  E  S Q    E  E  S S E   
--7s-8--8---------8--8-8----|--7s-8--8---------8--8-8----|
--7s-8--8---------8--8-8----|--7s-8--8---------8--8-8----|
--7s-8--8---------8--8-8----|--7s-8--8---------8--8-8----|
--6s-7--7---------7--7-7----|--6s-7--7---------7--7-7----|
--7s-8--8---------8--8-8----|--7s-8--8---------8--8-8----|
----------------------------|----------------------------|


  E   E   Q    Q    E.   S     E   E  Q    E  E   S S  E    
---------11-----------------|-----------------8--10-8------|
---------11-----------------|-----------------8--10-8------|
------------------------(0)-|-----------------8--10-8-(0)--|
--8--10---------------------|--8--10-----------------------|
----------------------------|------------------------------|
----------------------------|------------------------------|


  S  E  S Q    E  E  S S  E      S  E  S Q    E  E  S S E   
--7s-8--8---------8--8-8------|--7s-8--8---------8--8-8----|
--7s-8--8---------8--8-8------|--7s-8--8---------8--8-8----|
--7s-8--8---------8--8-8------|--7s-8--8---------8--8-8----|
--6s-7--7---------7--7-7------|--6s-7--7---------7--7-7----|
--7s-8--8---------8--8-8-(0)--|--7s-8--8---------8--8-8----|
------------------------------|----------------------------|


     Q    E   E   Q.      E     E   E  E   E   E   E   S  S  E   
--9g10-------10--10------10--|-----10-----10--10------10--------||
--9g10-------10--10------10--|-----11-----11--11------11-13-----||
--9g10-------10--10------10--|-----10-----10--10------10--------||
---8g9--------9---9-------9--|----------------------------------||
--9g10-------10--10------10--|-----10-----10--10--10--------10--||
-----------------------------|----------------------------------||


  Chorus 2                                                                       
  E   E  E   E   E   E    S  S E      E   E  E   S   S  S S  S  S  E   E   
----------------11-----------------|-----10-----10s-11-10-8---------------|
----------------11-------------8~--|--L--10-----10s-11-10-8---------------|
--------------------(0)---x--x-8~--|--L--10-----10s-11-10-8----(0)--------|
---------8--10------------x--x-----|-------------------------------8--10--|
-----10----------------------------|-------------------------x------------|
-----------------------------------|--------------------------------------|


  Q     E.   S  E   E  S  S   S   S     S S S  S     E.  S  E   E   S E.    
-------11-------8--10--------10s-11-|--10-8----------8---8-----------------|
-------11-------8--10--------10s-11-|--10-8----------8---8-----------------|
------------(0)-8--10----(0)-10s-11-|--10-8-x-(0)-8g10---8-----10b----8b---|
-------------------------(0)--------|----------------------10--------------|
------------------------------------|--------------------------------------|
------------------------------------|--------------------------------------|


   E   E  S S  S  S  E   E   S S E      E   E  E   S   S  S S  S  S  E   E   
--------------------11---------------|-----10-----10s-11-10-8---------------|
--------------------11-------x-x-8~--|--L--10-----10s-11-10-8---------------|
------------------------(0)--x-x-8~--|--L--10-----10s-11-10-8----(0)--------|
--10------8-8-10-10------------------|------------------------10-----8--10--|
------10-----------------------------|--------------------------------------|
-------------------------------------|--------------------------------------|


  E   E   E   S   S  E   E  S  S   S   S  
---------11----------8--10--------10s-11-|
---------11----------8--10--------10s-11-|
-------------(0)-(0)-8--10----(0)-10s-11-|
-----10----------------------------------|
-----------------------------------------|
-----------------------------------------|


                      >                    
   S E  S  S S  S  S  S  S  S  S  S  E.    
--10-8--8--8-8----------------------------||
--10-8--8--8-8----------------------------||
--10-8--8-10-8----------------------(0)---||
---------------10p-8-10-10-10-10-10-------||
------------------------------------------||
------------------------------------------||


   Outro                                     
   E.   S  E   E   S  S  E   S  S  S  S  
--11---11-----11---L-11-----11-11-------|
--11---11-----11---L-11-----11-11-------|
----------------------------------------|
----------10--10---L----10--------10-10-|
----------------------------------------|
----------------------------------------|


   S  S  S  S  S  S  S  S  S  S  S  S  S S   S  S  
--11-------11-------11-11-------11----11----------|
--11-------11-------11-11-------11----11----------|
--------------------------------------------------|
-----10-10----10-10-------10-10----10----8S-10-10-|
--------------------------------------------------|
--------------------------------------------------|


   E.   S  S  S  E   S  S  S  S  S  S  S  S  
--11---11-------11---L-11-------11-11-------|
--11---11-------11---L-11-------11-11-------|
--------------------------------------------|
----------10-10-----------10-10-------10-10-|
--------------------------------------------|
--------------------------------------------|


   S  S  S  S  S  S  S  S  S  S  S  S  S  S  S  S  
--11-------11-------11-11----------------11-------|
--11-------11-------11-11----------------11-------|
--------------------------------------------------|
-----10-10----10-10-------10-10-10-10-10----10-10-|
--------------------------------------------------|
--------------------------------------------------|


   E   S  S  S  S  S  S  S  S  S  S  S  E   S  
------------11-11-------11-11-------10-11-----|
------------11-11-------11-11-------10-11-----|
----------------------------------------------|
--10--10-10-------10-10-------10-10--------10-|
----------------------------------------------|
----------------------------------------------|


   E   E   S  S  S  S  S  S  S  S  S  S  S  S  
----------11-11-------------11----11-11-------|
----------11-11-------------11----11-11-------|
----------------------------------------------|
--10--10--------10-10-10-10----10-------10-10-|
----------------------------------------------|
----------------------------------------------|


   S  S  S  S  S  E   S  S  S  S  S  S  S  E      S S  E  E  S S  E  E  Q      
--------11----11-11--11-11-11-11-11-15-13------|-----------------------------||
--------11----11-11--11-11-11-11-11-11-11------|-----------------------------||
-----------------------------------------------|-----------------------------||
--10-10----10--------10-10-10-10-10-10-10-10\--|--8-8-10-----8-8-10----------||
-----------------------------------------------|-----------------------------||
-----------------------------------------------|-----------------------------||




Duration Legend
---------------
W - whole
H - half
Q - quarter
E - 8th
S - 16th
. - note dotted
|-n-|  - n-tuplets


Tablature Legend
----------------
L - tied note
x - dead note
g - grace note
(n) - ghost note
> - accentuded note
h - hammer on
p - pull off
b - bend
pb - preBend
S - shift slide
s - legato slide
\ -  slide into from above or out of downwards
~ - vibrato

Get my other tabs for Guitar Pro, Powertab, guitar/bass text and chords at
http://profile.ultimate-guitar.com/TexasFury/contributions/

v.2 July 25, 2012
comments
We did not receive enough feedback on this tab! Please rate:
print report bad tab
1 2 3 4 5
2 comments total.
0 reply
TexasFury wrote on July 30 2012, 07:35 pm

As of July 25, 2012, this is Version 2. Following is a list of changes made.

The transcription is more accurate. The sections labeled more accurately and distinctly. The tab uses a more "academic" presentation that reduces inadvertent notes and shows the intent more clearly. And lastly the incorrect GTR 2 "harmonics" track has been eliminated.

I might update this one last time. If I do so, it will be to eliminate even more inadvertent notes in the guitar. In any case, enjoy the tab.

0 reply
lynnkrois wrote on May 29 2014, 09:44 am

Thank you, GR8

I want to post or [tab]
guest
You may want to rate the tab now too:
select rating
Please do not post tabs as comments. Select "correction" instead!