Oops, an error
Loading. Please wait.

Baby Did A Bad Bad Thing Tab

ver2
ver2

Whole song

More versions @911Tabs.com
6,968 views 63 this week
1 commentread comment
1 2 3 4 5
accurate
x 4
Autoscroll
+/-
esc
set tempo
stop
Contributor
Difficulty
intermediate
WARNING: You are trying to view
                                    content from Ultimate-Guitar.com
                                    in an unauthorized application,
                                    which is prohibited.

                                    Please use an official Ultimate
                                    Guitar Tabs application for iPhone,
                                    iPad or Android to access legitimate
                                    chords, guitar, bass, and drum tabs
                                    from Ultimate-Guitar.com database.

                                    Type "ultimate guitar tabs" in Apple
                                    App Store's or Android Market's
                                    search to find the application.
Tuning: EADGBe

Play softly at first and increase intensity with time. 
You can begin with PM and vary until playing upon the neck.
Progressively play the rest of the notes in the E chord (0221)

Verse 1:
e|----------------------------------------------------------------|
B|----------------------------------------------------------------|
G|----------------------------------------------------------------|
D|----------------------------------------------------------------|
A|-----------------2p0-------0-----2-2--2-2-2---------------------|
E|---0-0--0-0-0----------03b-------0-0--0-0-0------0-3-5-5p3------|

e|----------------------------------------------------------------|
B|----------------------------------------------------------------|
G|--------1-1-1---------------------------------------------------|
D|---2-2--2-2-2-------------------2-2--2-2-2----------------------|
A|---2-2--2-2-2----2p0-------0----2-2--2-2-2----------------------|
E|---0-0--0-0-0----------03b------0-0--0-0-0-----0-3-5-5p3--------|


Bridge 1 :
e|---------------------------------------------------------------|
B|-----------------------------------------------0-0-0-0-0-0-0-0-|
G|-----------------------------------------------1-1-1-1-1-1-1-1-|
D|---------0----------0-LR------0---------0------2-2-2-2-2-2-2-2-|
A|----0h2------0h2----------0h2-----0h2----------2-2-2-2-2-2-2-2-|
E|-----------------------------------------------0-0-0-0-0-0-0-0-|

Verse 2 :

e|----------------------------------------------------------------|
B|----------------------------------------------------------------|
G|--------1-1-1---------------------------------------------------|
D|---2-2--2-2-2-------------------2-2--2-2-2----------------------|
A|---2-2--2-2-2----2p0-------0----2-2--2-2-2----------------------|
E|---0-0--0-0-0----------03b------0-0--0-0-0-----0-3-5-5p3--------|

e|----------------------------------------------------------------|
B|----------------------------------------------------------------|
G|--------1-1-1---------------------------------------------------|
D|---2-2--2-2-2-------------------2-2--2-2-2----------------------|
A|---2-2--2-2-2----2p0-------0----2-2--2-2-2----------------------|
E|---0-0--0-0-0----------03b------0-0--0-0-0-----0-3-5-5p3--------|

Bridge 2 :
e|-------------------------------------------------------------|
B|-------------------------------------------0-0-0-0--0-0-0-0--|
G|-------------------------------------------1-1-1-1--1-1-1-1--|
D|----------0--------0-LR------0--------0----2-2-2-2--2-2-2-2--|
A|---0h2------0h2----------0h2-----0h2-------2-2-2-2--2-2-2-2--|
E|-------------------------------------------0-0-0-0--0-0-0-0--|

e|-----------------------------------------------------------|
B|--2-2-2-2-2-2-2-2----2-2-2-2-2-2-2-2-----------------------|
G|--2-2-2-2-2-2-2-2----2-2-2-2-2-2-2-2---1-1-1-1-1-1-1-1-----|
D|--2-2-2-2-2-2-2-2----2-2-2-2-2-2-2-2---2-2-2-2-2-2-2-2-----|
A|--0-0-0-0-0-0-0-0----0-0-0-0-0-0-0-0---2-2-2-2-2-2-2-2-----|
E|---------------------------------------0-0-0-0-0-0-0-0-----|


e|-------------------------------------------------------------------|
B|-------------------------------------------------------------------|
G|-------------------------------------------------------------------|
D|--------0-2-------0-2-----------0-2-------0-2---0-LR---------------|
A|--0h2------2p0-----------0h2------2p0------------------------------|
E|-------------------------------------------------------------------|
                                                         
e|-------------------------------------------------------------------|
B|-------------------------------------------------------------------|
G|-------------------------------------------------------------------|
D|--------0-2-------0-2-----------0-2-------0-2-LR----2p0------------|
A|--0h2------2p0-------------0h2------2p0----------------------------|
E|--------------------------------------------------------3b--0------|
                                                          PM
Outro :

e|-------------------------------------------------------------------|
B|-------------------------------------------------------------------|
G|-------------------------------------------------------------------|
D|-------------------------------------------------------------------|
A|-------------------2p0-------0-----2-2--2-2-2----------------------|
E|-----0-0--0-0-0----------03b-------0-0--0-0-0------0-3-5-5p3-------|

e|-------------------------------------------------------------------|
B|-------------------------------------------------------------------|
G|--------1-1-1------------------------------------------------------|
D|---2-2--2-2-2-------------------2-2--2-2-2-------------------------|
A|---2-2--2-2-2----2p0-------0----2-2--2-2-2-------------------------|
E|---0-0--0-0-0---------03b-------0-0--0-0-0-----0-3-5-5p3-----------|

************************************

| /   slide up
| \   slide down
| h   hammer-on
| p   pull-off
| ~   vibrato
| +   harmonic
| x   Mute note
| b   Bend
| pb  Pre-bend
| br  Bend release
| pbr Pre-bend release
| brb Bend release bend

***********************************
comments
print report bad tab
1 comment total.
0 reply
hijoert wrote on August 29 2012, 05:44 pm

Made a mistake actually, here is a better sounding tab the intro/main riff:

e|------------------------------------------------------------|
B|------------------------------------------------------------|
G|------------------------------------------------------------|
D|-------------------------------(2)(2)(2)(2)-----------------|
A|---------------2p0-------0------2--2--2--2------2-----------|
E|---0-0--0-0---------03b-------0-0--0--0--0----0----0-3-5p3--|

I want to post or [tab]
guest
You may want to rate the tab now too:
select rating
Please do not post tabs as comments. Select "correction" instead!