Oops, an error
Loading. Please wait.

Daytona Bass Tab

438 views 3 this week
no commentswrite comment
1 2 3 4 5
please rate
Autoscroll
+/-
esc
set tempo
stop
Contributor
Difficulty
intermediate
WARNING: You are trying to view
                                    content from Ultimate-Guitar.com
                                    in an unauthorized application,
                                    which is prohibited.

                                    Please use an official Ultimate
                                    Guitar Tabs application for iPhone,
                                    iPad or Android to access legitimate
                                    chords, guitar, bass, and drum tabs
                                    from Ultimate-Guitar.com database.

                                    Type "ultimate guitar tabs" in Apple
                                    App Store's or Android Market's
                                    search to find the application.
Bass Tabs Daytona – Chris REA
From Bruno brsosson@live.fr

Intro X3
G--------------------------------------------|
D--------------------------------------------|
A--------3----3-3----------------------------|
E---3-5--------------------------------------|

Verse X2
G-------------------------------------------------|
D-------------------------------------------------|
A--------3—---3---5--------3---3--1--------3------|
E---3-5-------------6--3-------------1--0---------|
Diamond dream    When the sun don't shine    I close my eyes to see
Twelve wild horses     In silver chain      Calling out to me


Chorus X2
G------------------------------------------------------------------------|
D-------3---3--0--0-------------------------3------3---5-----------------|
A--------------------3-----------3------------------------5---3—-------3-|
E-3--5----------------------3--5-------3--5-----------------------3-5----|
         Oh Daytona                    Shine your light on me
         Oh Daytona                    Shine your light on me


Verse
G------------------------------------------------|
D------------------------------------------------|
A--------3---3--5-------3------3--1--------3-----|
E---3-5-----------6--3--------------1--0---------|
Now she ain't easy     So you take good care   Or she will scream down on your lust


G-----------------------------------------------|
D-----------------------------------------------|
A--------3---6---8---6---3------3--1--------3---|
E---3-5-------------------------------1--0------|
She can please you     Like no other    Or she can leave you eating dust


Chorus X1
G---------------------------------------------------------------------|
D-------3---3--0--0-----------------------3------3--5-----------------|
A---------------------3---------3---------------------5---3—------3---|
E-3--5---------------------3--5-------3--5---------------------3-5----|
      Oh Daytona                      Shine your light on me



Solo Guitar

Bass  X7
G-----------------------------------------|
D-----------------------------------------|
A--------3----3---------------------------|
E---3-5---------3-------------------------|


Verse
G-----------------------------------------------|
D-----------------------------------------------|
A-------3--3--6---8---6---3------3--1--------3--|
E---3-5--------------------------------1--0-----|
Burning passion        Heat my day       Let me sit inside your wonder
Cloudless daydream  Oh dance of dances   To have tamed the sound of thunder


Chorus X2
G---------------------------------------------------------------------|
D------3---3--0--0------------------------3------3---5----------------|
A--------------------3----------3----------------------5---3-------3--|
E-3--5--------------------3--5-------3--5----------------------3-5----|
         Oh Daytona                         Shine your light on me
         Oh Daytona                         Shine your light on me


Bass  rythmic X3
G------------------------------|
D------------------------------|
A---3----6--8-8-8—6---3--------|
E------------------------------|

Chorus  XXX
G-----------------------------------------|
D-----------------------------------------|
A--------3----3---------------------------|
E---3-5---------3-------------------------|

Oh Daytona hey hey...

Racing car engine sound

End fading
G---------------------------------------------|
D---------------------------------------------|
A--------3----3-------3-------3---------3-----|
E---3-5---------3--------3--------3---------3-|
comments
We did not receive enough feedback on this tab! Please rate:
print report bad tab
1 2 3 4 5
I want to post or [tab]
guest
You may want to rate the tab now too:
select rating
Please do not post tabs as comments. Select "correction" instead!