Oops, an error
Loading. Please wait.

Easier Said Than Done Tab

36 views 1 this week
no commentswrite comment
1 2 3 4 5
please rate
Autoscroll
+/-
esc
set tempo
stop
Contributor
Difficulty
Tuning
novice
D A D G B E
Hey! There's an official Ultimate Guitar app which is ideal
for learning songs when you're away from computer. Get the app
WARNING: You are trying to view
                                    content from Ultimate-Guitar.com
                                    in an unauthorized application,
                                    which is prohibited.

                                    Please use an official Ultimate
                                    Guitar Tabs application for iPhone,
                                    iPad or Android to access legitimate
                                    chords, guitar, bass, and drum tabs
                                    from Ultimate-Guitar.com database.

                                    Type "ultimate guitar tabs" in Apple
                                    App Store's or Android Market's
                                    search to find the application.
Another new Chris Ross tune!  
Easier Said Than Done IS pretty easy once you get the hang of it. 
Tune your guitar to drop-d and put a capo on the 1st fret!
Definitely Youtube this song and the handy dandy guitar tutorial (taught by Chris Ross, himself!)


Intro: (Strumming pattern not exact)
e----0-0-0-0---0~---0-0----0-0-0--
B----5-5-5-5---5~---3-3----3-3-3--
G----6-6-6-6h7-7p6~-4-4----2-2-2--
D----7-7-7-7---7~---5-5-0~-0-0-0-- x2
A-0~--------------------0~--------
D-0~--------------------0~--------


Verse 1: (Lightly mute the chords playing the verse)
e----0-0-0-0---0~---0-0----0-0-0--
B----5-5-5-5---5~---3-3----3-3-3--
G----6-6-6-6h7-7p6~-4-4----2-2-2--
D----7-7-7-7---7~---5-5-0~-0-0-0-- x4
A-0~--------------------0~--------
D-0~--------------------0~--------
I mighta stayed one day too many
You mighta left one night too soon
Must've seen the things I couldn't bring
My eyes to see in you
The mortar dries the border lines
I've crossed across your face
Still lovlier than all the hers who've
Tried to take your place, you know it's true babe


Break: Strum this chord a few times (listen to the song for the rhythm)
e----
B-11-
G-12-
D-13-
A-0--
D----


Verse 2:
e----0-0-0-0---0~---0-0----0-0-0--
B----5-5-5-5---5~---3-3----3-3-3--
G----6-6-6-6h7-7p6~-4-4----2-2-2--
D----7-7-7-7---7~---5-5-0~-0-0-0-- x4
A-0~--------------------0~--------
D-0~--------------------0~--------
I could be there in a minute
This town it ain't that big
But you may as well be in Fayetteville or
Sarasota Springs
'Cause loneliness is loneliest
When home's one kiss away
And a mile is a million
When you don't know what to say


Chorus: (Strumming pattern not shown)
e------------------------------------0--------
B-3----------------------------------3--------
G-4----------------------------------2--------
D-5----------------------------------0--------
A-5----------------------------------0--------
D------------------------------------0--------
  Every day there's farewells on the runways

e------------------------------0--------
B-3----------------------------3--------
G-4----------------------------2--------
D-5----------------------------0--------
A-5----------------------------0--------
D------------------------------0--------
  Lovers trying so hard not to love

e-----------------------------------0--------
B-3---------------------------------3--------
G-4---------------------------------2--------
D-5---------------------------------0--------
A-5---------------------------------0--------
D-----------------------------------0--------
  Every night, the goodbyes turn to somedays

e-0-------------------------------------
B-5--------------------3----------------
G-6--------------------4---------------- (At the word "done", return to the intro)
D-7--------------------5----------------
A---------------------------------------
D---------------------------------------
  Sometimes goodbye is easier said than done


Intro:
e----0-0-0-0---0~---0-0----0-0-0--
B----5-5-5-5---5~---3-3----3-3-3--
G----6-6-6-6h7-7p6~-4-4----2-2-2--
D----7-7-7-7---7~---5-5-0~-0-0-0-- x2
A-0~--------------------0~--------
D-0~--------------------0~--------


Verse 3:
e----0-0-0-0---0~---0-0----0-0-0--
B----5-5-5-5---5~---3-3----3-3-3--
G----6-6-6-6h7-7p6~-4-4----2-2-2--
D----7-7-7-7---7~---5-5-0~-0-0-0-- x4
A-0~--------------------0~--------
D-0~--------------------0~--------
It's the rain upon the water
It's the leaves under the trees
True love's hard to part with
Hardly ever evergreen
It ain't red bouquets and Cabernets 
And rare fillet mignon
It's morning-light that shines in spite of
All that you've done wrong


Chorus: (Strumming pattern not shown)
e------------------------------------0--------
B-3----------------------------------3--------
G-4----------------------------------2--------
D-5----------------------------------0--------
A-5----------------------------------0--------
D------------------------------------0--------
  Every day there's farewells on the runways

e------------------------------0--------
B-3----------------------------3--------
G-4----------------------------2--------
D-5----------------------------0--------
A-5----------------------------0--------
D------------------------------0--------
  Lovers trying so hard not to love

e-----------------------------------0--------
B-3---------------------------------3--------
G-4---------------------------------2--------
D-5---------------------------------0--------
A-5---------------------------------0--------
D-----------------------------------0--------
  Every night, the goodbyes turn to somedays

e-0-------------------------------------
B-5--------------------3----------------
G-6--------------------4---------------- (At the word "done", return to the intro)
D-7--------------------5----------------
A---------------------------------------
D---------------------------------------
  Sometimes goodbye is easier said than done


Intro:
e----0-0-0-0---0~---0-0----0-0-0--
B----5-5-5-5---5~---3-3----3-3-3--
G----6-6-6-6h7-7p6~-4-4----2-2-2--
D----7-7-7-7---7~---5-5-0~-0-0-0-- x2
A-0~--------------------0~--------
D-0~--------------------0~--------


Verse 4:
e----0-0-0-0---0~---0-0----0-0-0--
B----5-5-5-5---5~---3-3----3-3-3--
G----6-6-6-6h7-7p6~-4-4----2-2-2--
D----7-7-7-7---7~---5-5-0~-0-0-0-- x4
A-0~--------------------0~--------
D-0~--------------------0~--------
There's a madness in the mirror
That no one else can see
A part of us that lies in trust and
Perfect harmony
And we're all bound by bank accounts and
Jagged county lines
Just love and live and please forgive
The things that I can't hide


Chorus: (Strumming pattern not shown)
e------------------------------------0--------
B-3----------------------------------3--------
G-4----------------------------------2--------
D-5----------------------------------0--------
A-5----------------------------------0--------
D------------------------------------0--------
  Every day there's farewells on the runways

e------------------------------0--------
B-3----------------------------3--------
G-4----------------------------2--------
D-5----------------------------0--------
A-5----------------------------0--------
D------------------------------0--------
  Lovers trying so hard not to love

e-----------------------------------0--------
B-3---------------------------------3--------
G-4---------------------------------2--------
D-5---------------------------------0--------
A-5---------------------------------0--------
D-----------------------------------0--------
  Every night, the goodbyes turn to somedays

e-0-------------------------------------
B-5--------------------3----------------
G-6--------------------4---------------- (At the word "done", return to the intro)
D-7--------------------5----------------
A---------------------------------------
D---------------------------------------
  Sometimes goodbye is easier said than done


Break: Strum this chord a few times (listen to the song for the rhythm)

e-0-
B-3-
G-2-
D-0-
A-0-
D-0-


Chorus: (Strumming pattern not shown)
e------------------------------------0--------
B-3----------------------------------3--------
G-4----------------------------------2--------
D-5----------------------------------0--------
A-5----------------------------------0--------
D------------------------------------0--------
  Every word you waste could be the right one

e----------------------------------0--------
B-3--------------------------------3--------
G-4--------------------------------2--------
D-5--------------------------------0--------
A-5--------------------------------0--------
D----------------------------------0--------
  Every step you take could be the last

e-------------------------------0--------
B-3-----------------------------3--------
G-4-----------------------------2--------
D-5-----------------------------0--------
A-5-----------------------------0--------
D-------------------------------0--------
  Everybody hates the taste of never on their tongue

e-0-------------------------------------
B-5--------------------3----------------
G-6--------------------4---------------- (At the word "done", return to the intro)
D-7--------------------5----------------
A---------------------------------------
D---------------------------------------
  Sometimes goodbye is hard
  Sometimes goodbye is hard
  Sometimes goodbye is easier said than done


Intro:
e----0-0-0-0---0~---0-0----0-0-0--
B----5-5-5-5---5~---3-3----3-3-3--
G----6-6-6-6h7-7p6~-4-4----2-2-2--
D----7-7-7-7---7~---5-5-0~-0-0-0-- (Play the intro once)
A-0~--------------------0~--------
D-0~--------------------0~--------

End on:
e----
B-11-
G-12-
D-13-
A-0--
D----
comments
We did not receive enough feedback on this tab! Please rate:
print report bad tab
1 2 3 4 5
I want to post or [tab]
guest
You may want to rate the tab now too:
select rating
Please do not post tabs as comments. Select "correction" instead!