Oops, an error
Loading. Please wait.

Fort Von Hier Chords

1,072 views 1 this week
no commentswrite comment
1 2 3 4 5
please rate
Autoscroll
+/-
esc
set tempo
stop
Contributor
Difficulty
Tuning
novice
D# G# C# F# A# D#
Hey! There's an official Ultimate Guitar app which is ideal
for learning songs when you're away from computer. Get the app
WARNING: You are trying to view
                                    content from Ultimate-Guitar.com
                                    in an unauthorized application,
                                    which is prohibited.

                                    Please use an official Ultimate
                                    Guitar Tabs application for iPhone,
                                    iPad or Android to access legitimate
                                    chords, guitar, bass, and drum tabs
                                    from Ultimate-Guitar.com database.

                                    Type "ultimate guitar tabs" in Apple
                                    App Store's or Android Market's
                                    search to find the application.
-------------------------------------------------------------------------------
			Fort von hier - Christian Troitzsch
-------------------------------------------------------------------------------
Tabbed by: Markus W.
Email:nogard2005@freenet.de

Tuning: 1/2 step down

Chords:

Am: 	01220x
Asus2: 	00220x
Asus4:	03200x
Cadd9:	03023x
G5:	x30023
F:	112331
G:	334553
E:	001220



      Am    Asus2  Asus4  Cadd9    G5     F      G      E
eb|----0------0------0------0------x------1------3------0--
Bb|----1------0------3------3------3------1------3------0--
Gb|----2------2------2------0------0------2------4------1--
Db|----2------2------0------2------0------3------5------2--
Ab|----0------0------0------3------2------3------5------2--
Eb|--------------------------------3------1------3------0--


:INTRO: 2x
=======   
 
     1       2       3       4       1       2       3       4     
     Am            Asus2             Asus4              
eb|--0---0---0-----0---0-0---0---0-0-0---0---0-----0---0-0---0---0-0-|
Bb|--1---1---1-----0---0-0---0---0-0-3---3---3-----3---3-3---3---3-3-|
Gb|--2---2---2-----2---2-2---2---2-2-2---2---2-----2---2-2---2---2-2-|
Db|--2---2---2-----2---2-2---2---2-2-0---0---0-----0---0-0---0---0-0-|
Ab|--0---0---0-----0---0-0---0---0-0-0---0---0-----0---0-0---0---0-0-|
Eb|------------------------------------------------------------------|
     V   v   V     П   П v   V   v П V   v   V     П   П v   V   v П 


     1       2       3       4       1       2       3       4     
     Cadd9                           G5            Cadd9               
eb|--0---0---0-----0---0-0---0---0-0-0---0---0-----0---0-0---0---0-0-|
Bb|--3---3---3-----3---3-3---3---3-3-3---3---3-----3---3-3---3---3-3-|
Gb|--0---0---0-----0---0-0---0---0-0-0---0---0-----0---0-0---0---0-0-|
Db|--2---2---2-----2---2-2---2---2-2-0---0---0-----2---2-2---2---2-2-|
Ab|--3---3---3-----3---3-3---3---3-3-2---2---2-----3---3-3---3---3-3-|
Eb|----------------------------------3---3---3-----------------------|
     V   v   V     П   П v   V   v П V   v   V     П   П v   V   v П 

(same in the verse)


:Verse 1:
=========

Am         Asus2           Asus4
  Hab hier viel zu lang verweilt
Cadd9             G5    Cadd9 
  Es ewig nicht gepeilt
Am     Asus2          Asus4
  Dass hier nicht der Ort ist
          Cadd9    G5   Cadd9
  Für die Eeeeeewigkeit


Am            Asus2             Asus4
  Mach mich schleunigst auf den Weg
Cadd9                  G5    Cadd9
  Es ist lange nicht zu spät
Am     Asus2       Asus4
  Endlich wird es Zeit
               Cadd9   G5   Cadd9
  Dass ich den Arsch beweg’


:Chorus:
=========

F                      G 
Barfuß die Straßen entlang
        Am               Asus2    E            
Hab mir längst schon die Füße verbrannt
     F            G~~~~                 Am Asus2 (4x)
Doch in der Ferne seh’ ich schon neues Land


:Verse 2:
=========

Am              Asus2         Asus4
  Lass alles und jeden hinter mir
Cadd9               G5        Cadd9
  Denn ich muss fort von hier
Am    Asus2         Asus4
  Ihr wusstet immer schon
                Cadd9|         G5    Cadd9
  Dass ihr mich irgendwann verliert


Am         Asus2          Asus4
  Doch nun ist die Zeit gekommen
Cadd9                   G5     Cadd9
  Hab meine Sachen mitgenommen
Am          Asus2 Asus4
  Und von Ferne ein
           Cadd9|   G5   Cadd9
  „Komm zurück" vernommen


:Chorus:
=========

F                      G 
Barfuß die Straßen entlang
        Am               Asus2    E       
Hab mir längst schon die Füße verbrannt
     F            G                     Am Asus2 Am Asus2 Am Asus2 F G  (2x)  
Doch in der Ferne seh’ ich schon neues Land


:Verse 3:
=========

Am~~                          Asus4~~~
  Hab eins zwei Jahre dort verlebt
Cadd9                  G5~Cadd9~~~
  Ausprobiert was alles geht
Am        Asus2       Asus4    
  Doch es ist niemals zu spät
           Cadd9|   G5 Cadd9   
  Um neues Land zu sehen


:Chorus:
=========

F                      G 
Barfuß die Straßen entlang
        Am               Asus2    E   
Hab mir längst schon die Füße verbrannt
     F            G   
Doch in der Ferne seh’ ich schon
     F            G      
Doch in der Ferne seh’ ich schon 
     F            G~~~~~      
Doch in der Ferne seh’ ich schooon
     Am~~~~~
neues Land

===============================================================================
Official website of Christian Troitzsch:
http://www.asphaltakustik.de/
===============================================================================
This version in from the BalconyTV-video from Youtube: 
http://www.youtube.com/watch?v=EMZ8LiMNFkY

feel free to rate this tab
mail me for mistakes or suggestions

ThX
DarkViruzz
comments
We did not receive enough feedback on this tab! Please rate:
print report bad tab
1 2 3 4 5
I want to post or [tab]
guest
You may want to rate the tab now too:
select rating
Please do not post tabs as comments. Select "correction" instead!