Oops, an error
Loading. Please wait.

The Last Mile Tab

ver1
ver1

Whole song

Interactive

More versions @911Tabs.com
6,793 views 12 this week
no commentswrite comment
1 2 3 4 5
excellent!
x 2
Autoscroll
+/-
esc
set tempo
stop
Difficulty
intermediate
Hey! There's an official Ultimate Guitar app which is ideal
for learning songs when you're away from computer. Get the app
WARNING: You are trying to view
                                    content from Ultimate-Guitar.com
                                    in an unauthorized application,
                                    which is prohibited.

                                    Please use an official Ultimate
                                    Guitar Tabs application for iPhone,
                                    iPad or Android to access legitimate
                                    chords, guitar, bass, and drum tabs
                                    from Ultimate-Guitar.com database.

                                    Type "ultimate guitar tabs" in Apple
                                    App Store's or Android Market's
                                    search to find the application.
THE LAST MILE
As recorded by Cinderella
(From the 1988 Album LONG COLD WINTER)




 Words and Music by Tom Keifer
Arranged by Cinderella
 

Gtr I (E A D G B E) - '12 string electric'
Gtr II (E A D G B E) - 'Dist.'
Gtr III (E A D G B E) - 'Dist.'


 Intro
  Moderately Q=124
  A                 G                A                 G
 4/4
  Gtr I
  E E E E E E E E   E E E E E E Q    E E E E E E E E   E E E E E E Q
|-----------------|----------------|-----------------|-----------------|
|---------0-------|-------------3--|---------0-------|-------------3---|
|-----2-----2---2-|-----0-----2----|-----2-----2---2-|-----0-----2-----|
|---2---2-----2---|---0---0-0------|---2---2-----2---|---0---0-0-------|
|-0---------------|----------------|-0---------------|-----------------|
|-----------------|-3--------------|-----------------|-3---------------|
  W                 H       H        W                 W


  A                 G                A                G5
  E E E E E E E E   E E E E E E Q    E E E E E E Q    W
|-----------------|----------------|----------------|------||
|---------0-------|-------------3--|---------0------|-3----||
|-----2-----2---2-|-----0-----2----|-----2-----2----|-0----||
|---2---2-----2---|---0---0-0------|---2---2-----2--|-0----||
|-0---------------|----------------|-0--------------|------||
|-----------------|-3--------------|----------------|-3----||
  W                 H       H        W


 Main Riff
  A5                      G/BD/A  A5
  Gtr II
  Q  Q  E E E E   E E E E Q  Q    Q  Q  E E E E   E E E E S S E S S E
|---------------|---------------|---------------|---------------------||
|---------------|---------8--7--|---------------|---------------------||
|-2-------2---2-|---7s5---7--7--|-2-------2---2-|---7s5-------5-----5-||
|-2-------2---2-|---7s5---9--7--|-2-------2---2-|---7s5-------5-----5-||
|-0-------0---0-|-------0-------|-0-------0---0-|-------0-5h7---5h7---||
|---------------|---------------|---------------|---------------------||


   Verse
    A5                      G/BD/A  A5                      G5/G/B
    Q  Q  E E E E   E E E E Q  Q    Q  Q  E E E E   E E E E Q  Q
||----------------|---------------|---------------|----------------|
||o---------------|---------8--7--|---------------|---------3--3---|
||--2-------2---2-|---7s5---7--7--|-2-------2---2-|---7s5---0--0---|
||--2-------2---2-|---7s5---9--7--|-2-------2---2-|---7s5----------|
||o-0-------0---0-|-------0-------|-0-------0---0-|-------0-3--2---|
||----------------|---------------|---------------|----------------|


  A5                      DsuD/AB A5
  Q  Q  E E E E   E E E E Q  Q    Q  Q  E E E E   E E E E S S E S S E
|---------------|---------------|---------------|---------------------||
|---------------|---------8--7--|---------------|---------------------||
|-2-------2---2-|---7s5---7--7--|-2-------2---2-|---7s5-------5-----5-||
|-2-------2---2-|---7s5---9--7--|-2-------2---2-|---7s5-------5-----5-||
|-0-------0---0-|-------0-------|-0-------0---0-|-------0-5h7---5h7---||
|---------------|---------------|---------------|---------------------||


 Pre-Chorus
  G5             A5               C                D5
  Gtr I
  Q  Q  E E Q    E E E E E E Q    E E E E E E Q    E E E E E E Q
|--------------|----------------|----------------|-------0---0----||
|-3------------|----------------|----------------|-3---3---3------||
|-0-------0----|-2---2----------|-----0----------|-2-2---------2--||
|-0--0------0--|-2-2---2---2----|---0---0---0----|-0--------------||
|--------------|-0-------0---0--|-3-------3---0--|----------------||
|-3-----3------|----------------|----------------|----------------||


 Chorus
  E                Em7/G            A5               Em7/G
  E E E E E E Q    E E E E E E Q    E E E E E E Q    E E E E E E Q
|----------------|-0---0---3-2----|----------------|-0---0---3-2----|
|---0-----0------|-3-3---3-----3--|---0-----0------|-3-3---3-----3--|
|-----2-----2----|-0--------------|-----2-----2----|-0--------------|
|-2-----2-----2--|----------------|-2-----2-----2--|----------------|
|----------------|----------------|-0--------------|----------------|
|----------------|----------------|----------------|----------------|


                                   1.
  A5               Em7/G            A5                Em7/G
  E E E E E E Q    E E E E E E Q    E E E E E E E E   E E Q  E  E   Q
|----------------|-0---0---3-2----|-------------0---|-0---0--0-(0)-(0)--|
|---0-----0------|-3-3---3-----3--|---0-----0-----0-|-3-3-3--3------3---|
|-----2-----2----|-0--------------|-----2-----2-----|-0---0--2--2--(2)--|
|-2-----2-----2--|----------------|-2-----2---------|--------0-(0)-(0)--|
|-0--------------|----------------|-0---------------|-------------------|
|----------------|----------------|-----------------|-------------------|


 2/4       4/4
  +H        W
|-(0)----||---------------|
|-(3)----||---------------|
|-(2)----||---------------|
|-(0)----||---------------|
|--------||---------------|
|--------||---------------|
|
| Gtr III
|  W        Q  Q  E E E E
|--------||---------------|
|--------||---------------|
|--------||-2-------2---2-|
|--------||-2-------2---2-|
|--------||-0-------0---0-|
|--------||---------------|


  Gtr II
                                              ~~~
  E a E E E a   +S  S E a    +E  +E    S S E +H.
|------------------------------------|---------------------|
|---------------------5--------------|---------------------|
|-------2-4-4b5-(4)-----4b6==(4)r(4)-|-2h4-2-(2)-----------|
|---2s4------------------------------|---------------------|
|------------------------------------|---------------------|
|------------------------------------|---------------------|
|
| E   E E E      Q            Q        Q      Q   E E E E
|------------------------------------|---------------------|
|----------------8------------7------|---------------------|
|-----7s5--------7------------7------|-2------------2---2--|
|-----7s5--------9------------7------|-2------------2---2--|
|---------0--------------------------|-0------------0---0--|
|------------------------------------|---------------------|


                                   2.
                                    A5
                                    Gtr I
                    ~~~
  a   +E  E E E    +H               E E E E E E Q
|-----------5--------------------||----------------|
|---------5---8b10-(8)----------o||---0-----0------|
|-4b6-(4)------------------------||-----2-----2----|
|--------------------------------||-2-----2-----2--|
|-------------------------------o||-0--------------|
|--------------------------------||----------------|
|
|      E  E E E     S S E S S E     W
|--------------------------------||----------------|
|-------------------------------o||----------------|
|---------7s5-----------5-----5--||----------------|
|---------7s5-----------5-----5--||----------------|
|-------------0-----5h7---5h7---o||----------------|
|--------------------------------||----------------|


  Em7/G             E
  E E E E E E Q     E E E E E E E E
|-0---0---3-2----||-------0----------|
|-3-3---3-----3--||---------0--------|
|-0--------------||-----4-----4---4--|
|----------------||---2---------2----|
|----------------||------------------|
|----------------||-0----------------|
|
| W                 W
|----------------||------------------|
|----------------||------------------|
|----------------||------------------|
|----------------||------------------|
|----------------||------------------|
|----------------||------------------|


  D                 E                 D                E
  E E E E E E E E   E E E E E E E E   E E E E E E Q    E E E E E E Q
|-----------------|-------0---------|-----------0----|-------0--------|
|-----3-----3-----|---------0-------|-----3-------0--|---------0---0--|
|---2-----2---2---|-----4-----4---4-|---2-----2------|-----4-----4----|
|-0-----4-------4-|---2---------2---|-0-----4--------|---2------------|
|-----------------|-----------------|----------------|----------------|
|-----------------|-0---------------|----------------|-0--------------|


                                               Guitar Solo
  D     C#         E                G5          E
                                                Gtr II
  E E E E E E Q    E E E E Q  E E   W           H       E E E E
|-----------0----|-------0--------|----------||-------------------|
|-----3-------0--|---------0------|-3--------||-------------------|
|---2-----2------|-----4----------|-0--------||-------------2-4b6-|
|-0--------------|---2------------|-0--------||-----------4-------|
|-------4--------|----------------|----------||-------------------|
|----------------|-0----------0-2-|-3--------||-------------------|
|
|                                               Gtr I
| W                W                W           E E E E E E Q
|----------------|----------------|----------||-------------------|
|----------------|----------------|----------||---0-----0---------|
|----------------|----------------|----------||-----2-----2-------|
|----------------|----------------|----------||-2-----2-----2-----|
|----------------|----------------|----------||-------------------|
|----------------|----------------|----------||-------------------|


  Em7/G                     A5
  +Q    E E   +Q.     S S   H       a   +E  E E a    +E
|-------------------------|-------------------2----------|
|-------5-----------------|-----------------5------------|
|-(4)-----4b6-(4)-----2-4-|-2-------4b5-(4)-----4b6==(4)-|
|-------------------------|------------------------------|
|-------------------------|------------------------------|
|-------------------------|------------------------------|
|
|  E  E E E    E  E Q       E E E E      E  E Q
|--0----0------3--2-------|------------------------------|
|--3--3---3---------3-----|---0----------0---------------|
|--0----------------------|-----2-----------2------------|
|-------------------------|-2-----2-----------2----------|
|-------------------------|-0----------------------------|
|-------------------------|------------------------------|


  Em7/G                    A5
                                                 |----3----|
  +E   E E E   +E  E E E   +Q      +Q    +E  S S E a   +E  E
|--------2-----------2---|-------------------2---------------|
|------5-----------5---5-|-(5)b7r==(5)---(5)---5-2---------2-|
|-(4)r-----4b6-(4)-------|-------------------------4b5-(4)---|
|------------------------|-----------------------------------|
|------------------------|-----------------------------------|
|------------------------|-----------------------------------|
|
|  E   E E E    E  E Q      E    E  E  E  E  E   Q
|--0-----0------3--2-----|-----------------------------------|
|--3---3---3---------3---|-------0--------0------------------|
|--0---------------------|----------2--------2---------------|
|------------------------|--2----------2---------2-----------|
|------------------------|--0--------------------------------|
|------------------------|-----------------------------------|


  Em7/G
                                        ~~~
  |-----3-----|
  E a   +E    E a    +S  +T  T E S S E +Q
|-------------------------------------------|
|-5-----------2-----------------------------|
|---4b5-(4)-----4b5==(4)r(4)p2---4---2-(2)--|
|------------------------------4---4--------|
|-------------------------------------------|
|-------------------------------------------|
|
| E         E         E        E E   E  Q
|-0-------------------0----------3---2------|
|-3---------3------------------3--------3---|
|-0-----------------------------------------|
|-------------------------------------------|
|-------------------------------------------|
|-------------------------------------------|


  A5                                          Em7/G
  S S E S    +S  +S  a    +S  +S  S E S S E   W
|-------------------------------------------|-------------------||
|-------------------------------------------|-------------------||
|-------------------------------------------|-2-----------------||
|-------------------------------------------|-------------------||
|-----0-2b3==(2)r(2)-2b3==(2)r(2)p0---0h2-0-|-------------------||
|-0h2-------------------------------2-------|-------------------||
|
| E   E E         E            E    E E   E   E E Q  E  E   Q
|-------------------------------------0-----|-0---0--0-(0)-(0)--||
|-----0------------------------0----------0-|-3-3-3--3------3---||
|-------2---------------------------2-------|-0---0--2--2--(2)--||
|-2---------------2-------------------------|--------0-(0)-(0)--||
|-0-----------------------------------------|-------------------||
|-------------------------------------------|-------------------||


  A5                          G/BD/A  A5
  +W                +W                +W                +H        +E   E Q
|-----------------|-----------------|-----------------|------------------------|
|-----------------|-----------------|-----------------|------------------------|
|-(2)-------------|-(2)-------------|-(2)-------------|-(2)-------(2)----------|
|-----------------|-----------------|-----------------|------------------------|
|-----------------|-----------------|-----------------|------------------7\----|
|-----------------|-----------------|-----------------|------------------------|
|
| Gtr III
|  Q   Q  E E E E    E  E E E Q  Q     Q   Q  E E E E    E  E E E  S S E S S E
|-----------------|-----------------|-----------------|------------------------|
|-----------------|-----------8--7--|-----------------|------------------------|
|--2--------2---2-|-----7s5---7--7--|--2--------2---2-|-----7s5--------5-----5-|
|--2--------2---2-|-----7s5---9--7--|--2--------2---2-|-----7s5--------5-----5-|
|--0--------0---0-|---------0-------|--0--------0---0-|---------0--5h7---5h7---|
|-----------------|-----------------|-----------------|------------------------|


  A5                      G/BD/A  A5
  Q  Q  E E E E   E E E E Q  Q    Q  Q  E E E E   E E E E S S E S S E
|---------------|---------------|---------------|---------------------|
|---------------|---------8--7--|---------------|---------------------|
|-2-------2---2-|---7s5---7--7--|-2-------2---2-|---7s5-------5-----5-|
|-2-------2---2-|---7s5---9--7--|-2-------2---2-|---7s5-------5-----5-|
|-0-------0---0-|-------0-------|-0-------0---0-|-------0-5h7---5h7---|
|---------------|---------------|---------------|---------------------|


  G5             A                C               D
  Gtr I
  Q  Q  E E Q    E E E E E E Q    E E Q  E E Q    E E Q  +H
|--------------|----------------|---------------|---------------|
|----3---------|----------------|---------------|---------------|
|-0--0---------|-----2----------|-----0---------|---2-----------|
|-0--0------0--|---2---2---2----|---0------0----|-0---0--(0)----|
|---------2----|-0-------0---0--|-3------3---3--|---------------|
|-3-----3------|----------------|---------------|---------------|


                     Outro Chorus
                      A5               Em7/G            A5
  E E E E +E  E Q     E E E E E E Q    E E E E E E Q    E E E E E E Q
|-0-----0-(0)------||----------------|-0---0---3-2----|----------------|
|---3--------------||---0-----0------|-3-3---3-----3--|---0-----0------|
|-----2---------2--||-----2-----2----|-0--------------|-----2-----2----|
|-------------0----||-2-----2-----2--|----------------|-2-----2-----2--|
|------------------||-0--------------|----------------|-0--------------|
|------------------||----------------|----------------|----------------|


  Em7/G            A5               Em7/G            A5
  E E E E E E Q    E E E E E E Q    E E E E E E Q    E E E E E E Q
|-0---0---3-2----|----------------|-0---0---3-2----|----------------|
|-3-3---3-----3--|---0-----0------|-3-3---3-----3--|---0-----0------|
|-0--------------|-----2-----2----|-0--------------|-----2-----2----|
|----------------|-2-----2-----2--|----------------|-2-----2-----2--|
|----------------|-0--------------|----------------|-0--------------|
|----------------|----------------|----------------|----------------|


                       Outro Solo
  Em7/G
  Gtr II
                                               ~~~~~~~~~
  H       E  E  E  E     a      +E   E  E  E  +H
|--------------------||-------------12-12--------------|
|--------------10-12-||-12b14==(12)-------12-(12)------|
|-----------/2-------||--------------------------------|
|--------------------||--------------------------------|
|--------------------||--------------------------------|
|--------------------||--------------------------------|
|
| Gtr I
| E E E E E  E  Q                E   E  E  E   E  E Q
|-0---0---3--2-------||--------------------------------|
|-3-3---3-------3----||--------------0---------0-------|
|-0------------------||-----------------2---------2----|
|--------------------||----------2---------2--------2--|
|--------------------||----------0---------------------|
|--------------------||--------------------------------|


  Em7/G               A5
 ~~~~~~~~~~~~~~~~~~~~~~~~~~~
   +W                  +H.            Q
|-------------------|---------------------|
|-(12)--------------|-(12)r---------------|
|-------------------|---------------------|
|-------------------|---------------------|
|-------------------|---------------------|
|-------------------|---------------------|
|
|   E  E E E E E Q      E   E E E E E Q
|---0----0---3-2----|---------------------|
|---3--3---3-----3--|-------0-----0-------|
|---0---------------|---------2-----2-----|
|-------------------|---2-------2-----2---|
|-------------------|---0-----------------|
|-------------------|---------------------|


        Em7/G                             A5
   a     +Q.      E  a      +E   E   Q    W
|-12b14-(12)-----12-10b12==(10)-10r-10--|-9--------------|
|---------------------------------------|----------------|
|---------------------------------------|----------------|
|---------------------------------------|----------------|
|---------------------------------------|----------------|
|---------------------------------------|----------------|
|
|         E  E E  E          E   E   Q    E E E E E E Q
|---------0----0-------------3---2------|----------------|
|---------3--3----3------------------3--|---0-----0------|
|---------0-----------------------------|-----2-----2----|
|---------------------------------------|-2-----2-----2--|
|---------------------------------------|-0--------------|
|---------------------------------------|----------------|


        Em7/G                          A5
   a      Q    E  E     +E   E  E  E    W
|--------12--------------------------|------------------|
|-12b14-(12)-----12b14-(12)-12-10-12-|-10---------------|
|------------------------------------|------------------|
|------------------------------------|------------------|
|------------------------------------|------------------|
|------------------------------------|------------------|
|
|         E  E E  E      E   E  Q       E E E E E E Q
|---------0----0---------3---2-------|------------------|
|---------3--3----3-------------3----|----0-----0-------|
|---------0--------------------------|------2-----2-----|
|------------------------------------|--2-----2-----2---|
|------------------------------------|--0---------------|
|------------------------------------|------------------|


  Em7/G                          A5
                                                   ~~~~~~~~~
   +H         +S   S   E  E  E    E  E  E  E      +H
|------------------------------|----12-12------------------|
|-(10)-------(10)\-------10-12-|-12-------12b14==(12)------|
|--------------------/11-------|---------------------------|
|------------------------------|---------------------------|
|------------------------------|---------------------------|
|------------------------------|---------------------------|
|
|   E  E E E   E       E  Q       E  E  E  E       E  E Q
|---0----0-----3-------2-------|---------------------------|
|---3--3---3--------------3----|-----0-------------0-------|
|---0--------------------------|--------2-------------2----|
|------------------------------|--2--------2------------2--|
|------------------------------|--0------------------------|
|------------------------------|---------------------------|


  Em7/G               A5
 ~~~~~~~~~~~~~~~~~~~~~~~~~~~
   +W                  +H.            Q
|-------------------|---------------------|
|-(12)--------------|-(12)r---------------|
|-------------------|---------------------|
|-------------------|---------------------|
|-------------------|---------------------|
|-------------------|---------------------|
|
|   E  E E E E E Q      E   E E E E E Q
|---0----0---3-2----|---------------------|
|---3--3---3-----3--|-------0-----0-------|
|---0---------------|---------2-----2-----|
|-------------------|---2-------2-----2---|
|-------------------|---0-----------------|
|-------------------|---------------------|


        Em7/G                                   A5
                                                           ~~~~~        ~~~~~~~~~
   a     +Q.      E  a     +E   E  E E    a      +Q.      +E    a      +H
|-12b14-(12)-----12------------12-10---|-15b17==(15)-----(15)r-15b17==(15)------|
|-------------------12b14-(12)---------|----------------------------------------|
|--------------------------------------|----------------------------------------|
|--------------------------------------|----------------------------------------|
|--------------------------------------|----------------------------------------|
|--------------------------------------|----------------------------------------|
|
|         E  E E  E         E   E  Q              E  E E   E            E  E Q
|---------0----0------------3---2------|----------------------------------------|
|---------3--3----3----------------3---|-------------0------------------0-------|
|---------0----------------------------|---------------2-------------------2----|
|--------------------------------------|----------2--------2-----------------2--|
|--------------------------------------|----------0-----------------------------|
|--------------------------------------|----------------------------------------|


  Em7/G                                      A5
 ~~~~~~~                                                ~~~~~        ~~~~
   +H          a      +E   +E   E E    a      +Q.      +E    a      +H
|-(15)r-------15b17==(15)r(15)-12---|-15b17==(15)-----(15)r-15b17==(15)--------|
|-----------------------------------|------------------------------------------|
|-----------------------------------|------------------------------------------|
|-----------------------------------|------------------------------------------|
|-----------------------------------|------------------------------------------|
|-----------------------------------|------------------------------------------|
|
|   E   E E E          E    E   Q              E  E E   E            E  E Q
|---0-----0------------3----2-------|------------------------------------------|
|---3---3---3-------------------3---|-------------0------------------0---------|
|---0-------------------------------|---------------2-------------------2------|
|-----------------------------------|----------2--------2-----------------2----|
|-----------------------------------|----------0-------------------------------|
|-----------------------------------|------------------------------------------|


  Em7/G                                     A5
    ~~~~~                                                 ~~~~~~~~~
   +H          a      +E   +E   E E    a     +Q.      E  +H
|-(15)r-------15b17==(15)r(15)-12---|-17b19-(17)-----17-(17)------|
|-----------------------------------|-----------------------------|
|-----------------------------------|-----------------------------|
|-----------------------------------|-----------------------------|
|-----------------------------------|-----------------------------|
|-----------------------------------|-----------------------------|
|
|   E   E E E          E    E   Q             E  E E  E   E  E Q
|---0-----0------------3----2-------|-----------------------------|
|---3---3---3-------------------3---|------------0--------0-------|
|---0-------------------------------|--------------2---------2----|
|-----------------------------------|---------2-------2--------2--|
|-----------------------------------|---------0-------------------|
|-----------------------------------|-----------------------------|


  Em7/G                       A5
 ~~~~~~~~~~~~~~~~~~~~                       ~~~~
   +H         Q    Q     a     +Q.      E  +H
|-(17)-------17---17--|-17b19-(17)-----17-(17)-------|
|---------------------|------------------------------|
|---------------------|------------------------------|
|---------------------|------------------------------|
|---------------------|------------------------------|
|---------------------|------------------------------|
|
|   E  E E E  E E  Q            E  E E  E   E  E Q
|---0----0----3-2-----|------------------------------|
|---3--3---3-------3--|------------0--------0--------|
|---0-----------------|--------------2---------2-----|
|---------------------|---------2-------2--------2---|
|---------------------|---------0--------------------|
|---------------------|------------------------------|


  Em7/G                       A5
    ~~~~~~~~~~~~~~~~~                       ~~~~
   +H         Q    Q     a     +Q.      E  +H
|-(17)-------17---17--|-17b19-(17)-----17-(17)------|
|---------------------|-----------------------------|
|---------------------|-----------------------------|
|---------------------|-----------------------------|
|---------------------|-----------------------------|
|---------------------|-----------------------------|
|
|   E  E E E  E E  Q            E  E E  E   E  E Q
|---0----0----3-2-----|-----------------------------|
|---3--3---3-------3--|------------0--------0-------|
|---0-----------------|--------------2---------2----|
|---------------------|---------2-------2--------2--|
|---------------------|---------0-------------------|
|---------------------|-----------------------------|


        Em7/G
                      ~~~~
   a     +Q.      E  +H
|-17b19-(17)-----17-(17)------*|
|-----------------------------*|
|-----------------------------*|
|-----------------------------*|
|-----------------------------*|
|-----------------------------*|
|
|         E  E E  E   E  E Q
|---------0----0------3--2----*|
|---------3--3----3--------3--*|
|---------0-------------------*|
|-----------------------------*|
|-----------------------------*|
|-----------------------------*|




--------------------------------------------------------------------------------


Duration Legend
---------------
W - whole; H - half; Q - quarter; E - 8th; S - 16th; T - 32nd; X - 64th; a - acciaccatura
+ - note tied to previous; . - note dotted; .. - note double dotted
Uncapitalized letters represent notes that are staccato (1/2 duration)
Irregular groupings are notated above the duration line
Duration letters will always appear directly above the note/fret number it represents the
duration for.  Duration letters with no fret number below them represent rests.  Multi-
bar rests are notated in the form Wxn, where n is the number of bars to rest for.  Low
melody durations appear below the staff

Tablature Legend
----------------
 h   - hammer-on
 p   - pull-off
 b   - bend
 pb  - pre-bend
 r   - bend release (if no number after the r, then release immediately)
 /\  - slide into or out of (from/to "nowhere")
 s   - legato slide
 S   - shift slide
 - natural harmonic
[n]  - artificial harmonic
n(n) - tapped harmonic
 ~   - vibrato
 tr  - trill
 T   - tap
 TP  - trem. picking
 PM  - palm muting
\n/  - tremolo bar dip; n = amount to dip
 \n  - tremolo bar down
 n/  - tremolo bar up
/n\  - tremolo bar inverted dip
 =   - hold bend; also acts as connecting device for hammers/pulls
 <> - volume swell (louder/softer)
 x   - on rhythm slash represents muted slash
 o   - on rhythm slash represents single note slash

Misc Legend
-----------
 |  - bar
||  - double bar
||o - repeat start
o|| - repeat end
*|  - double bar (ending)
 :  - bar (freetime)
 $  - Segno
 &  - Coda
Tempo markers -  = BPM(8/16=s8/s16), where s8 = swing 8ths, s16 = swing 16ths

comments
We did not receive enough feedback on this tab! Please rate:
print report bad tab
1 2 3 4 5
I want to post or [tab]
guest
You may want to rate the tab now too:
select rating
Please do not post tabs as comments. Select "correction" instead!