Oops, an error
Loading. Please wait.

Bullet And A Target Tab

ver5
ver5

Whole song

More versions @911Tabs.com
2,231 views 45 this week
no commentswrite comment
1 2 3 4 5
excellent!
x 1
Autoscroll
+/-
esc
set tempo
stop
Difficulty
intermediate
WARNING: You are trying to view
                                    content from Ultimate-Guitar.com
                                    in an unauthorized application,
                                    which is prohibited.

                                    Please use an official Ultimate
                                    Guitar Tabs application for iPhone,
                                    iPad or Android to access legitimate
                                    chords, guitar, bass, and drum tabs
                                    from Ultimate-Guitar.com database.

                                    Type "ultimate guitar tabs" in Apple
                                    App Store's or Android Market's
                                    search to find the application.
Tabbed by James K.  

Intro:
--------------------------------------|
--------------------------------------|
--------------------------------------|
--------------------------------------|
--------------------------------------|
--3--3--3--3--3--0--1--1--1--1--1--0--|

--------------------------------------|
--------------------------------------|
--------------------------------------|
--1--1--1--1--1-----3--3--3--3--3--0--|
--3--3--3--3--3--0--1--1--1--1--1-----|
--------------------------------------|


Fuller sound:
---------------------------------------|
---------------------------------------|
---------------------------------------|  
--0--0--0--0--0-----3--3--3--3--3--3---|  
--1--1--1--1--1-----3--3--3--3--3--3---|
--3--3--3--3--3--0--1--1--1--1--1--1---|


---------------------------------------|
--4--4--4--4--4-----3--3--3--3--3------|
---------------------------------------|
--1--1--1--1--1-----3--3--3--3--3--0---|
--3--3--3--3--3--0--1--1--1--1--1------|
---------------------------------------|

Chorus sounds great with barre chords played in first 3 frets:  Gm / F / Cm / Bb

E----3------1-------3---------------|
B----3------1-------4--------3------|
G----3------2-------5--------3------|
D----5------3-------5--------3------|
A----5------3-------3--------1------|
E----3------1-------3--------1------| 


Riff at end of song: 
--------------------------------------|
--------------------------------------|
---/5-55--555-333-222-/33-------------| Repeat 8 x
--------------------------------------|
--------------------------------------|
--------------------------------------|

The lyrics are the hardest part of this brilliant song to get down timing wise.  Enjoy.

"Bullet And A Target"

Mr.Dali Lamas
Another sister's shootin' heroin tomorrow
Amputees in Freetown
Sierra Leone's
The church wasn't honest
The state put the youth in a harness
Creatin' hostility among us
Teacher said no college
Still the kid's gotta get a check with a couple commas
People wanna bomb us
More people gotta scatter and run from us
You can blame it on Zeus and Apollo and Adonis

But what you've done here
Is put yourself between a bullet and a target
And it won't be long before
You're pulling yourself away

But what you've done here
Is put yourself between a bullet and a target
And it won't be long before
You're pulling yourself away

I've been knowing her for years
I've been seeing her for years
She got dark, dark wavy hair
With a voice like she just don't care
She got a skirt with a halter top
She's got a dad who never gave a fuck
She drinks a beer with a proper shot
She got knocked up in a pickup truck
But she got engaged when she was nineteen
To this dude who was acting insane
Had a .45 that he always cleaned
Said one day one day one too many days
Now she ducked and she ran away
Never to be heard from, never to be seen
I check the cover of a magazine
I'm just wondering how, just wondering how

But what you've done here
Is put yourself between a bullet and a target
And it won't be long before
You're pulling yourself away         

Repeat

- comments: jameskuri@frontier.com
comments
We did not receive enough feedback on this tab! Please rate:
print report bad tab
1 2 3 4 5
I want to post or [tab]
guest
You may want to rate the tab now too:
select rating
Please do not post tabs as comments. Select "correction" instead!