Oops, an error
Loading. Please wait.

Sometimes Tab

ver1
ver1

Album

Whole song

More versions @911Tabs.com
8,247 views 42 this week
no commentswrite comment
1 2 3 4 5
excellent!
x 2
add to favorites launch autoscroll
font size
0
reset
Autoscroll
+/-
esc
set tempo
stop
Contributor
Difficulty
intermediate
WARNING: You are trying to view
                                    content from Ultimate-Guitar.com
                                    in an unauthorized application,
                                    which is prohibited.

                                    Please use an official Ultimate
                                    Guitar Tabs application for iPhone,
                                    iPad or Android to access legitimate
                                    chords, guitar, bass, and drum tabs
                                    from Ultimate-Guitar.com database.

                                    Type "ultimate guitar tabs" in Apple
                                    App Store's or Android Market's
                                    search to find the application.
Tabbed By: Isaiah Barker
Please check out my music, it is similar to Dallas Green's music.
Isaiah Barker (Facebook)
The Pilgrimage (Facebook)

-----------------------------------------------------------------------------

City and Colour (Dallas Green)
Sometimes – January 13, 2009

Track Listing:
...Off by Heart
Like Knives
Hello, I'm in Delaware
Save Your Scissors
In the Water I Am Beautiful
Day Old Hate
Sam Malone
Comin' Home
Casey's Song 
Sometimes (I Wish)

-----------------------------------------------------------------------------

…Off By Heart

   A   A/G# B
e  0   0    7
B  0   0    7
G  6   6    8
D  7   7    9
A  7   7    9
E  5   4    7


A  A/G#  A  A/G#  B
A    A/G#     A     A/G# B
The stars are aligned,
A        A/G#        A    A/G#  B
But they don't align for us
A      A/G#   A A/G#   B   A A/G# A A/G# B
Excuse me for I am the ocean
A      A/G#       A     A/G# B
And I will starve for you
A        A/G#        A    A/G#   B
Will you know how to stay brave?
A    A/G#    A  A/G#    B     A A/G# A A/G# B
Such fragile moments we share
    A   A/G#   A  A/G# B   A A/G# A A/G# B
And you are my everything
A     A/G#    A  A/G#     B  A A/G# A A/G# B
And even with nothing to say
A A/G# A A/G# B
ooooohhhhh
A A/G# A A/G# B
ooooohhhhh

A A/G# A A/G# B

-----------------------------------------------------------------------------

Like Knives

Tuning: CGDGBE
Capo 4

X----X----X----X---X-|
0----0----0----0---0-|
0----0----0----0---0-|
0----0----0----0---0-|
5-h--7----4----2---0-| let this note ring
4----4----4----4---0-| let this note ring

0--------0----0----0----0---|
0--------0----0----0----0---|
2/4--/---5-/--7--\-4----2p0-|
0--------0----0----0----0---|
X--------X----X----X--------|X this note is still ringing
X--------X----X----X--------|X this note is still ringing

0------0--0---------------------|
3------3--3---------------------|
0------0--0-----------------2p0-|
4------0--4-----0^2^4-----------|
2------0--0---------------------|
2------0--X---------------------|


Chorus 2nd pass:
0------0---0----0----------------|
3------3---3----3----------------|
0------0---0----0------------2p0-|
4--p---0---4-p--2-----0^2^4------|
2--p---0---0----0----------------|
2------0---X----X----------------|


Chorus 3rd pass:
0------0---0----2-------------------|
3------3---3----3-------------------|
0------0---0----0---------------2p0-|
4--p---0---4----4--------0^2^4------|
2--p---0---0----0-------------------|
2------0---X----X-------------------|


Chorus 4th pass:
0------0---0----0------------0-| this last chord hangs
3------3---3----3------------0-| into the break
0------0---0----0------------0-|
4--p---0---4-p--2------------2-|
2--p---0---0----0------------0-|
2------0---X----X------------X-|

LEAD IN TO END IS STILL GOOD I THINK
0-----0-----0-|
3-----3-----3-|
0--^--2--^-4--|
0-----0-----0-|
0-----0-----0-|
X-----X-----X-|

X-----X
0-----0
4--^-5
5-----5-|
0-----0-|
X-----X

FINAL CHORD HAS BEEN CHANGED
X-----X-|
3-----3-|
0-----0-|
5--P--4-|
2-----2-|
X-----X-|

-----------------------------------------------------------------------------

Hello, I’m In Delaware

INTRO::: Ebm B Abm B x2

VERSE:::
Ebm                  B 
   So there goes my life
Abm             B
Passing by with every exit sign
Ebm              B
   It's been so long
 Abm                   B
Sometimes I wonder how I will stay strong
Ebm          B
  No sleep tonight
Abm                        B
I'll keep on driving these dark highway lines
Ebm                B
   And as the moon fades
Abm                               
One more night gone, only twenty more days

F# Abm B// ///|/// ///|

CHORUS:::
           F#        Abm                
But I will see you again
       B           
I will see you again 
  F#   Abm       B
a long time from now

Turnaround::: Ebm B Abm B x2

VERSE 2:::
And there goes my life
Passing by with every departing flight
And its been so hard
So much time so far apart
And she walks the night
How many hearts will die tonight
And will things have changed
I guess I'll find out in seventeen days

BRIDGE:::
F#/Bb
    My body aches
B
and it hurts to sing,
Abm        B         
and no one is moving
F#/Bb          
  And I wish that I 
B
  weren't here tonight,
Abm             B      
but this is my life

-----------------------------------------------------------------------------

Save Your Scissors

CAPO 4

Chords:
   G    3 2 0 0 1 3
   Em1  0 2 2 0 1 3
   Am   0 0 2 2 1 0
   Em2  0 2 2 0 0 0
   C    0 3 2 0 1 0

G
So go on
                Em1
And I will refrain
     G                                     Em1
And I'll keep on running this neverending race
  G                           Em1
maybe next time will be the right time
     G                       Em1
and maybe next time will be your time

               Am
So save your scissors
              G
For someone else's skin
      Em2
My surface is so tough
                 C
I don't think the blade will dig in
         
Am
Save your strength 
         G
Save your wasted time
  Em2                               C
There's no way that I want you to be left behind
                 G
Go on save your scissors
          Em1
Save your scissors

   G                   Em1
So why does it always seem
      G              
That every time I turn around
          Em1
Somebody falls in love with me
G                           Em1
This has never been my soul intention
    G                                        Em1
And I have never claimed to have patents on such inventions

               Am
Just save your scissors
              G
For someone else's skin
      Em2
My surface is so tough
                 C
I don't think the blade will dig in
         
Am
Save your strength 
         G
Save your wasted time
  Em2                               C
There's no way that I want you to be left behind
                 G
Go on save your scissors
          Em1
Save your scissors

C                         Em2                 G
There is something that I must confess to you tonight
       Am
To you tonight
     C                Em2                   G
And that is I expect nothing less from you tonight
          Am
From you tonight

                  G
Go on save your scissors
         Em1
Save your scissors
         G
Save your scissors

      End on G

-----------------------------------------------------------------------------

In the Water I am Beautiful

Tuning: Drop D - DADGBE

Intro -
e|-0---0-0---0---------------------------|
B|-0---0-0---0-----------------------0---|
G|-9---9/11--11---0--0--0--0---------0---|
D|-9---9/11--12---0--55-44-00---0-0--0---|
A|-7---7/9---9----4-------------4/5--5---|
D|-7---7/9---9----4-------------4/5--5---| x2

"I know it's not to get away from me..."
e|-0---0-0---0------------------0-0--0---|
B|-0---0-0---0------------------0-0--0---|
G|-9---9/11--11---0--00-00-00---0-0--0---|
D|-9---9/11--12---0--55-44-00---0-0--0---|
A|-7---7/9---9----4--44-44-44---4/5--5---|
D|-7---7/9---9----4--44-44-44---4/5--5---| x4

"These words might be too little too late..."
e|--0---0-0---0---0---0--0-|
B|--0---0-0---0---0---0--0-|
G|--6---6/7---7---4---7--6-|
D|--4---4/5---5---2---5--5-|
A|--4---4/5---5---2---5--5-|
D|--4---4/5---5---2---5--5-| x4 

"When you ask 'Do you love me?'"
e|-0---0-0---0------------------0-0--0---|
B|-0---0-0---0------------------0-0--0---|
G|-9---9/11--11---0--00-00-00---0-0--0---|
D|-9---9/11--12---0--55-44-00---0-0--0---|
A|-7---7/9---9----4--44-44-44---4/5--5---|
D|-7---7/9---9----4--44-44-44---4/5--5---| x4

"These words might be too little too late..."
e|-------------------------------------------------|
B|-------------------------------------------------|
G|-------------------------------------------------|
D|--------4------------7-----------2------------7--|
A|--4444444444444/555555-----0h222222222222/555555-|
D|--4444444444444/555555-----0h222222222222/555555-|

"I'm afraid that I have......Already lost you, now"
e|-------------------------------------------------|
B|-------------------------------------------------|
G|---------------------------4---------8-----------|
D|--------7------------7-----2---------5-----------|
A|--4444444-44444/555555-----2---------5-----------|
D|--4444444-44444/555555-----2---------5-----------|

"Three months equals eternity.."
e|--0---0-0---0---0---0--0-|
B|--0---0-0---0---0---0--0-|
G|--6---6/7---7---4---7--6-|
D|--4---4/5---5---2---5--5-|
A|--4---4/5---5---2---5--5-|
D|--4---4/5---5---2---5--5-| x2

"..arms"
e|--0---0-0-|
B|--0---0-0-|
G|--4---7-6-|
D|--2---5-5-|
A|--2---5-5-|
D|--2---5-5-| x3

End with - 
e|--0---0-0-0-|
B|--0---8-7-7-|
G|--4---7-7-7-|
D|--2---5-5-0-|
A|--2---5-5-0-|
D|--2---5-5-0-|

-----------------------------------------------------------------------------

Day Old Hate

Tuning: Drop D (DADGBE)
Capo 4

Intro Chords:
Gmaj7: 020002
G    : x20003
Em11 : 002000
Gmaj9: 004005
Cmaj7: 032000
Cadd9: x32030
D11  : 0340xx 
D9   : 034x03

Verse Chords:
Bm   : 224xxx
D    : 004xxx
Cadd9: x32030
D9   : 034x03

Chorus Chords:
Dsus2: 002xxx
D    : 004xxx
Cmaj7: 032000
Cadd9: x32030

Intro: Gmaj7, G, Em11, Gmaj9, Cmaj7, Cadd9, D11, Gmaj7, G, Em11, Gmaj9, Cmaj7, Cadd9, D11, D9

Verse 1:
Bm       D              Cadd9              D9
So let's face it, this was never what you wanted
Bm           D          Cadd9        D9
But I know, I know it's fun to pretend
Bm         D           Cadd9       D9
Now blank stares and empty threats
Bm         D     Cadd9           D9
Are all I have, they’re all I have

Chorus:
Dsus2     D  Dsus2   D           
So drown me, if you can
Cmaj7   Cadd9
Or we could just have conversation
Dsus2    D   Dsus2      D
and I fall, I fall, I fall down
Cmaj7        Cadd9     Dsus2  D   Cmaj7
But I found you before I drift away

Interlude: Gmaj7, G, Em11, Gmaj9, Cmaj7, Cadd9, D11, Gmaj7, G, Em11, Gmaj9, Cmaj7, Cadd9, D11, D9

Verse 3:
Bm              D       Cadd9     D9
Now you still speak of day old hate
Bm                D          Cadd9        D9
Though your whole world has gone up into flames
Bm                  D            Cadd9         D9
And isn’t it great to find that you’re really worth nothing
Bm            D    Cadd9       D9
And how safe it is to feel safe

Chorus:
Dsus2     D  Dsus2   D           
So drown me, if you can
Cmaj7   Cadd9
Or we could just have conversation
Dsus2    D   Dsus2      D
and I fall, I fall, I fall down
Cmaj7        Cadd9     Dsus2  D   Cmaj7
But I found you before I drift away

Interlude: Gmaj7, G, Em11, Gmaj9, Cmaj7, Cadd9, D11, Gmaj7, G, Em11, Gmaj9, Cmaj7, Cadd9, D11, D9
                     [sing over with doo, doo, doo's]

Bm             D           Cadd9   D9
The things we do just to stay alive
Bm             D         Cadd9   D9
The things we do just to stay alive
Bm         D           Cadd9    D9
The things we do just to stay alive
Bm                 D                Cmaj7
The things we do just to keep ourselves alive

-----------------------------------------------------------------------------

Same Malone

Tuning: Standard

| /  slide up
| \  slide down
| h  hammer-on
| p  pull-off
| ~  vibrato
| +  harmonic
| x  Mute note

Intro (Does not always stay this exact way)
e|-------------------------|
B|-------------------7+----|
G|-------7---6-------------|     X 4
D|---------------7+--------|
A|-------------------------|
E|-----7---7---7---7-------|

e|-----------------------------------------|
B|-----------------------------------0-----|
G|---------------2---------------2---------|   X 2
D|-------2---4-------4---2---4-------------|
A|-----------------------------------------|
E|-----3---3---3---3---3---3---3---3-------|

Verses
e|------X-----X-----X---------0----------0----0---------|
B|------0-----0-----0---------0----------0----0---------|
G|------7--p--6-----6---------0----------X----0---------|
D|------0-----0--h--7---------0----------4----0---------|
A|------5-----5-----5---------2----------2----2---------|
E|------7-----7-----7---------3----------3----3---------|
“And you, can, try, to fight this all you want...”

Choruses
e|------0-/-0----0-/-0----0-----------------------------|
B|------0-/-0----0-/-0----0-----------------------------|
G|------0-/-0----0-/-0----0-----------------------------|
D|------0-/-0----0-/-0----0-----------------------------|
A|------5-/-7----2-/-5----2-----------------------------|
E|------5-/-7----2-/-5----2-----------------------------|
"And I know, there is, some place I can go..."

e|------0-----0--0----0--------0------0---0---0--0---0--|
B|------0-----0--0----0--------0------0---0---0--0---0--|
G|------0-----0--0----0--------0------0---0---0--X---0--|
D|------0-----0--0----0--------0------0---0---0--4---0--|
A|------5-----7--2----5--------7------2-p-0-h-2--2---2--|
E|------5-----7--2----5--------7------3---3---3--3---3--|
“Where no, one knows, my name…”

Ending
e|------0-/-0----0-/-0----0----|
B|------0-/-0----0-/-0----0----|
G|------0-/-0----0-/-0----0----|   X 2
D|------0-/-0----0-/-0----0----|
A|------5-/-7----2-/-5----2----|
E|------5-/-7----2-/-5----2----|

-----------------------------------------------------------------------------

Comin Home

F#m            E          D
Well I've been down to Georgia,
 D             E           F#m
I've seen the streets in the west,
F#m            E     D
I've driven down the 90,
 D             E           F#m
Oh hell, I've seen America's best.
F#m             E          D
I've been through the Rockies,
 D             E      F#m
Hell, I've seen Saskatoon,
F#m             E          D
I've driven down the Highway 1
 D               E           F#m
Just hopin' that I'd see you soon.

Chorus :
F#m    E     D
Cuz I'm comin' home
E         F#m
I'm comin' home
                 (x3) *only the last 2 lines
E          D
I'm comin' home

F#m              E         D
Well I've never been to Alaska,
 D         E        F#m
But I can tell you this;
F#m            E          D
I've been to Lincoln, Nebraska
D                     E        F#m
And hell you know it ain't worth shit.
F#m            E          D
I've been through Nova Scotia,
D      E      F#m
Sydney to Halifax,
F#m            E          D
But I'll never take any pictures
D                      E        F#m
Cuz I'll know I'll just be right back.

Chorus :
F#m    E     D
Cuz I'm comin' home
E         F#m
I'm comin' home
                 (x3) *only the last 2 lines
E          D
I'm comin' home

F#m              E          D
Well I've seen a palace in London,
D            E         F#m
I've seen a castle in Wales,
F#m            E          D
But I'd rather wake up beside you
D                     E       F#m
And breathe that old familiar smell.
F#m            E          D
I never thought you could leave me,
D          E       F#m
I figured I was the one,
F#m        E            D
But I understand your sadness,
D                        E       F#m
So I guess I should just hold my tongue.

Chorus :
F#m    E     D
But I'm comin' home
E         F#m
I'm comin' home
                 (x3) *only the last 2 lines
E          D
I'm comin' home

E                        D
I know that we're taking chances,
E                     D
You told me life was a risk,
E                     D
I just have one last question;
               E
Will it be my heart
               D
Or will it be his?

Chorus  :
 F#m
Comin' Home
E          D
I'm comin' home
E        F#m     (Repeat last 2 lines until the song ends)
I'm comin' home

-----------------------------------------------------------------------------

Casey's Song

Tuning: EBEG#Bd#
Capo 2

D#|--12+--------------|--------0-----------0-----|--------0-----------0-----|
B |--12+--------------|--------0-----------0-----|--------0-----------0-----|
G#|--12+--------------|--0--0--0--0--0--0--0--0--|--0--0--0--0--0--0--0--0--|
E |--12+--------------|--7--6--7--6--7--6--7--6--|--7--6--7--6--7--6--7--6--|
B |--12+--------------|--4--4--4--4--4--4--4--4--|--4--4--4--4--4--4--4--4--|
E |--12+--------------|--4--4--4--4--4--4--4--4--|--4--4--4--4--4--4--4--4--|

Contd.
|--------0-----------0------|--------0-----------0------|
|--------0-----------0------|--------0-----------0------|
|--0--0--0--0--0--0--0--0-0-|--0--0--0--0--0--0--0--0-0-|
|--7--6--7--6--7--6--7--6-7-|--7--6--7--6--7--6--7--6-7-|
|--0--0--0--0--0--0--0--0-0-|--0--0--0--0--0--0--0--0-0-|
|--0--0--0--0--0--0--0--0-0-|--0--0--0--0--0--0--0--0-0-|

Chorus
|--0--0-0-0--0--0--0--0--0--|--0--0-0-0--0--0--0--0--0--|
|--0--0-0-0--0--0--0--0--0--|--0--0-0-0--0--0--0--0--0--|
|--0--0-0-0--0--0--0--0--0--|--0--0-0-0--0--0--0--0--0--|
|--9--6-6-6--6--6--6--6--6--|--9--6-6-6--6--6--6--6--6--|
|--7--4-4-4--4--4--4--4--4--|--7--4-4-4--4--4--4--4--4--|
|--7--4-4-4--4--4--4--4--4--|--7--4-4-4--4--4--4--4--4--|

Then...
|--0--0-0-0--0--0--0--0--0--|--0--0-0-0--0--0--0--0--0--|
|--0--0-0-0--0--0--0--0--0--|--0--0-0-0--0--0--0--0--0--|
|--0--0-0-0--0--0--0--0--0--|--0--0-0-0--0--0--0--0--0--|
|--9--9-9-9--7--7--7--7--7--|--9--9-9-9--7--7--7--7--7--|
|--7--7-7-7--5--5--5--5--5--|--7--7-7-7--5--5--5--5--5--|
|--7--0-0-0--0--0--0--0--0--|--7--0-0-0--0--0--0--0--0--|

Bridge - Palm Mute
|-----------------------------|-----------------------------|
|-----------------------------|-----------------------------|
|-----------------------------|-----------------------------|
|--0--0--0--0--0--0--0--0--0--|--0--0--0--0--0--0--0--0--0--|
|--4--4--4--4--4--4--4--4--4--|--4--4--4--4--4--4--4--4--4--|
|--4--4--4--4--4--4--4--4--4--|--4--4--4--4--4--4--4--4--4--|

|------------------------------|------------------------------|
|------------------------------|------------------------------|
|------------------------------|------------------------------|
|--5\--6--6--6--6--6--6--6--6--|--6---6--6--6--6--6--6--6--6--|
|--0---0--0--0--0--0--0--0--0--|--0---0--0--0--0--0--0--0--0--|
|--0---0--0--0--0--0--0--0--0--|--0---0--0--0--0--0--0--0--0--|

|-----------------------------|-----------------------------|
|-----------------------------|-----------------------------|
|-----------------------------|-----------------------------|
|--6--6--6--6--6--6--6--6--6--|--6--6--6--6--6--6--6--6--6--|
|--4--4--4--4--4--4--4--4--4--|--4--4--4--4--4--4--4--4--4--|
|--4--4--4--4--4--4--4--4--4--|--4--4--4--4--4--4--4--4--4--|

|--0--------------------------|
|--0--------------------------|  this is not Palm Muted.
|--0--------------------------|
|--6--------------------------|
|--0--------------------------|
|--0--------------------------|

Outro
|--0--0-0-0--0--0--0--0--0--|--0--0-0-0--0--0--0--0--0--|
|--0--0-0-0--0--0--0--0--0--|--0--0-0-0--0--0--0--0--0--|
|--0--0-0-0--0--0--0--0--0--|--0--0-0-0--0--0--0--0--0--|
|--9--6-6-6--6--6--6--6--6--|--4--4-4-4--4--4--4--4--4--|
|--7--4-4-4--4--4--4--4--4--|--2--4-4-4--4--4--4--4--4--|
|--7--4-4-4--4--4--4--4--4--|--2--2-2-2--2--2--2--2--2--|
                                                          X2
|--0--0-0-0--0--0--0--0--0--|--0--0-0-0--0--0--0--0--0--|
|--0--0-0-0--0--0--0--0--0--|--0--0-0-0--0--0--0--0--0--|
|--0--0-0-0--0--0--0--0--0--|--5--5-5-5--5--5--5--5--5--|
|--2--2-2-2--2--2--2--2--2--|--2--2-2-2--2--2--2--2--2--|
|--0--0-0-0--0--0--0--0--0--|--0--0-0-0--0--0--0--0--0--|
|--0--0-0-0--0--0--0--0--0--|--0--0-0-0--0--0--0--0--0--|

then...
|--0--0-0-0--0--0--0--0--0--|--0--0-0-0--0--0--0--0--0--|
|--0--0-0-0--0--0--0--0--0--|--0--0-0-0--0--0--0--0--0--|
|--0--0-0-0--0--0--0--0--0--|--0--0-0-0--0--0--0--0--0--|
|--9--6-6-6--6--6--6--6--6--|--9--4-4-4--4--4--4--4--4--|
|--7--4-4-4--4--4--4--4--4--|--7--2-2-2--2--2--2--2--2--|
|--7--4-4-4--4--4--4--4--4--|--7--2-2-2--2--2--2--2--2--|

|--0--0-0-0--0--0--0--0--0--|--0--0-0-0--0--0--0--0--0--|
|--0--0-0-0--0--0--0--0--0--|--0--0-0-0--0--0--0--0--0--|
|--0--0-0-0--0--0--0--0--0--|--0--0-0-0--0--0--0--0--0--|
|--9--7-7-7--7--7--7--7--7--|--9--9-9-9--9--9--9--9--9--|
|--7--5-5-5--5--5--5--5--5--|--7--7-7-7--7--7--7--7--7--|
|--7--0-0-0--0--0--0--0--0--|--7--0-0-0--0--0--0--0--0--|

|--0--0-0-0--0--0--0--0--0--|--12+----------------||
|--0--0-0-0--0--0--0--0--0--|--12+----------------||
|--0--0-0-0--0--0--0--0--0--|--12+----------------||
|--9--6-6-6--6--6--6--6--6--|--12+----------------||
|--7--4-4-4--4--4--4--4--4--|--12+----------------||
|--7--4-4-4--4--4--4--4--4--|--12+----------------||


| /  slide up
| \  slide down
| h  hammer-on
| p  pull-off
| ~  vibrato
| +  harmonic
| x  Mute note

-----------------------------------------------------------------------------

Sometimes

Tuning: EADGBE
Capo 6

Intro:
e|------------------0---------------------0-------------------0---------------------0|
B|------------------0---------------------0-------------------0---------------------0|
G|-----------2-2h4--0--2/4-2--------------0------------2-2h4--0--2/4-2--------------0|
D|---0-2-2h4--------4--------2/4-2-0-0h2--2----0-2-2h4--------4--------2/4-2-0-0h2--2|
A|-2----------------2---------------------3--2----------------2---------------------3|
E|------------------0---------------------0-------------------0---------------------0|

e|--0--0--|
B|--0--0--|
G|--0--0--|
D|--4--2--|
A|--2--3--|
E|--0--0--|
comments
We did not receive enough feedback on this tab! Please rate:
print report bad tab
1 2 3 4 5
I want to post or [tab]
guest
You may want to rate the tab now too:
select rating
Please do not post tabs as comments. Select "correction" instead!