Oops, an error
Loading. Please wait.

Waiting Chords

ver1
ver1

Whole song

More versions @911Tabs.com
274,777 views 456 this week
16 commentsread comments
1 2 3 4 5
excellent!
x 80
Autoscroll
+/-
esc
set tempo
stop
Contributor
Difficulty
novice
Hey! There's an official Ultimate Guitar app which is ideal
for learning songs when you're away from computer. Get the app
WARNING: You are trying to view
                                    content from Ultimate-Guitar.com
                                    in an unauthorized application,
                                    which is prohibited.

                                    Please use an official Ultimate
                                    Guitar Tabs application for iPhone,
                                    iPad or Android to access legitimate
                                    chords, guitar, bass, and drum tabs
                                    from Ultimate-Guitar.com database.

                                    Type "ultimate guitar tabs" in Apple
                                    App Store's or Android Market's
                                    search to find the application.
                          Tabbed By: Mark Peters
                      Email: markpeterz@hotmail.co.uk


This song is off the currently unreleased album. It's up on his myspace though. I've not 
on any vids so my chords might not be spot on. They sound alright for now i guess. It 
alright with the song.

Tuning: Standard (Capo 2)

Chords

   Em  G1  G2  G3

e|--0---0---0---0-------------------|
B|--0---0---0---0-------------------|
G|--0---0---0---0-------------------|
D|--2---2---4---5-------------------|
A|--2---3---5---5-------------------|
E|--0---3---5---3-------------------|


NOT SURE if the G3 chord, the E string should be muted (x), it sounds alright if muted 
held on 3, either way, whichever sounds better to you.


The little background bit that's played in the chorus is:

e|-------------------------------------------------------|
B|-------------------------------------------------------|
G|-------0h2--2/4-----------0h2--0------(REPEATED)-------|
D|---0h2---------------0h2-------------------------------|
A|-------------------------------------------------------|
E|-------------------------------------------------------|

[ Verse ]

G1                                G3
A coma might feel better than this
G1                              G3
Attempting to discover where to begin
G1
You're weighed down, you're full of something
   G3
Of sickness and desertion
G1
You're weighed down, you're full of something
       G3
You're underneath it all

[ Chorus ]

Em                G3
So say goodbye to love
G2                    G1
And hold your head up high
Em                 G3
There's no need to rush
               G2
We're all just waiting
          G1
Waiting to die

(here just strum the first two chords once and then wait and strum downx2 on the last chord)

e|--0---0---0-----------------|
B|--0---0---0-----------------|
G|--0---0---0-----------------|
D|--2---2---4-----------------|
A|--0h3-3---5-----------------|
E|--0---3---5-----------------|



[ Verse ]

G1                              G3
Hope in a better place is all I need
G1                            G3
With moments of innocence and mystery
G1
Oh, it's the little things you miss
  G3
Like waking up all alone
G1
Oh, it's the little things you miss
             G3
When you're underneath it all

[ Chorus ]

Em                G3
So say goodbye to love
G2                    G1
And hold your head up high
Em                 G3
There's no need to rush
               G2
We're all just waiting
          G1
Waiting to die


[ Bridge ]

(strum  (down)DDDD..etc at a quicker pace)

G2                         G1
All your friends seem like enemies
                            Em
When you're broken down and empty
    G1
Oooh oooh
G2                         G1
All your friends seem like enemies
                            Em
When you're broken down and empty
    G1        Em...........
Ooooh oooh

[ Chorus ]


So say goodbye to love

And hold your head up high
Em                 G3
There's no need to rush
               G2
We're all just waiting
          G1
Waiting to die


(Repeat the chorus chords)

Ohhhhh ohhh ohhhhhhh
Ohhhhh ohhh ohhhhhhh


The End. Please Rate!
comments
print report bad tab
16 comments total. Showing first comments.
0 reply
Matth3wC wrote on March 6 2008, 11:31 am

i don't know if this is a correction just my interpretation of fill
great tab!

e|-------------------------------------------------------|
B|-------------------------------------------------------|
G|-------0h2--2/4-----------0h2--0-----------------------|
D|---0h2---------------0h2-------------------------------|
A|-------------------------------------------------------|
E|-------------------------------------------------------|

e|-------------------------------------------------------|
B|-------------------------------------------------------|
G|-------0h2--2/4--/7---7/4---4/2---0---0h2p0------------|
D|---0h2-------------------------------------------------|
A|-------------------------------------------------------|
E|-------------------------------------------------------|

-1 reply
juliaP wrote on April 6 2008, 09:12 pm

theres a little part played in the background of the first verse too. its by the electric guitar i think

e|---------------------------------------------------|
B|---------------------------------------------------|
G|------0-2-------0-----------4-2h4p0-------0-4-2-2--|
D|--0-4-------0-4---0-------0-----------0-4----------|
A|---------------------------------------------------|
E|---------------------------------------------------|

good tab tho. i think you got some of the chords names wrong tho

+1 reply
blink bassist wrote on May 4 2008, 05:38 am

How do you play the intro ;/

I want to post or [tab]
guest
You may want to rate the tab now too:
select rating
Please do not post tabs as comments. Select "correction" instead!