Oops, an error
Loading. Please wait.

Till They Take My Heart Away Tab

4,120 views 3 this week
no commentswrite comment
1 2 3 4 5
please rate
Autoscroll
+/-
esc
set tempo
stop
Contributor
Difficulty
intermediate
Hey! There's an official Ultimate Guitar app which is ideal
for learning songs when you're away from computer. Get the app
WARNING: You are trying to view
                                    content from Ultimate-Guitar.com
                                    in an unauthorized application,
                                    which is prohibited.

                                    Please use an official Ultimate
                                    Guitar Tabs application for iPhone,
                                    iPad or Android to access legitimate
                                    chords, guitar, bass, and drum tabs
                                    from Ultimate-Guitar.com database.

                                    Type "ultimate guitar tabs" in Apple
                                    App Store's or Android Market's
                                    search to find the application.
Till They Take My Heart Away by Claire Marlo

Tabbed by: Edward A. Mirador
E-mail: edalimir@yahoo.com

I did have a hard time figuring the notes so if you have suggestions or comments just 
me. There are some variations in other versions of this song (i.e. MYMP and Kyla). I hope 
tab may help.
"The solution to the problem is the summation of all the solutions."

Standard tuning

Intro
E||--------0-------------------|
B||-----------4--0---2-------0-|
G||------1-----------------1---|
D||----2----------------2------|
A||----------------------------|
E||--0-------------------------|

--------0---------------------|-------------------------------|
-----------4--0---2---------0-|--L-----5--4-------------------|
------1-------------------1---|--------------4----6---------4-|
----2----------------2--------|------6--------------------6---|
------------------------------|----4-----------4-----4--------|
--0---------------------------|-------------------------------|


   (the D-bar varies... just be creative)
-----------0--5--0----------|--------0--------------------|
--------3-----------3-------|-----------4--0----2-------0-|
------2----------------2----|------1------------------1---|
----0-----------------------|----2-----------2-----2------|
----------------------------|-----------------------------|
----------------------------|--0--------------------------|

--------0--------------------|-------------------------------|
-----------4--0---2--------0-|--L-----5--4-------------------|
------1------------------1---|--------------4----6---------4-|
----2----------------2-------|------6--------------------6---|
-----------------------------|----4-----------4-----4--------|
--0--------------------------|-------------------------------|


                                        Verse
-----------0--5--0----------|--------0----------------------|
--------3-----------3-------|-----------4--0---------0------|
------2----------------2----|------1-----------1----------1-|
----0-----------------------|----2-----------2----------2---|
----------------------------|-------------------------------|
----------------------------|--0----------------------------|

--------0----------------------|-------------------------------|
-----------4--0------2-------0-|--L-----5--4-------------------|
------1------------1-------1---|--------------4----6---------4-|
----2-----------2------2-------|------6--------------------6---|
-------------------------------|----4-----------4-----4--------|
--0----------------------------|-------------------------------|

-------------------------------|--------0-----------------------|
--3----2----0------------------|-----------4--0--------2------0-|
--2--------------2----1h-2p-1--|------1-----------1---------1---|
-------------------------------|----2-----------2--------2------|
-------------------------------|--------------------------------|
-------------------------------|--0-----------------------------|

--------0----------------------|-------------------------------|
-----------4--0------2-------0-|--L-----5--4-------------------|
------1------------1-------1---|--------------4----6---------4-|
----2-----------2------2-------|------6--------------------6---|
-------------------------------|----4-----------4-----4--------|
--0----------------------------|-------------------------------|

-------------------------------|--0------------------------------|
--3----2----0------------------|--------2----2--------2--------2-|
--2--------------2----1h-2p-1--|------2--------2---2---------2---|
-------------------------------|----2------------2------2--------|
-------------------------------|--0------------------------------|
-------------------------------|---------------------------------|

--------2------------------------|--------0----------------------|
------------4--------4-------4---|-----------4--0------0-------2-|
------4-------4----4-------4---4-|------1------------1-------1---|
----4-----------4------4---------|----2-----------2------2-------|
--2------------------------------|-------------------------------|
---------------------------------|--0----------------------------|

------------------------------------|-----------0-----------------------|
--5-----5----4----4----5----------5-|--------2-----2----------------2---|
--------6----4----4----6----------6-|------2----------2----2------2-----|
----6--------------------6---6------|----2-------------------2----------|
------4-------------4------4--------|--0--------------------------------|
------------------------------------|-----------------------------------|

--0---0-----------------------|--------0----------------------|
--2---2------2----------------|-----------4--0---------0------|
--2--------2------2-------2---|------1-----------1----------1-|
--------4-------------4-------|----2-----------2----------2---|
--2------------2--------------|-------------------------------|
------------------------------|--0----------------------------|

--------0----------------------|---------------------------------|
-----------4--0------2-------0-|--------5------------------------|
------1------------1-------1---|------------6-4---------6----6---|
----2-----------2------2-------|------6------------6-------6-----|
-------------------------------|----4-----------4-------4--------|
--0----------------------------|---------------------------------|

-------------------------------|--------0-----------------------|
--3----2----0------------------|-----------4--0--------2------0-|
--2--------------2----1h-2p-1--|------1-----------1---------1---|
-------------------------------|----2-----------2--------2------|
-------------------------------|--------------------------------|
-------------------------------|--0-----------------------------|

--------0----------------------|--------------------------------|
-----------4--0------2-------0-|--L------5--4-------------------|
------1------------1-------1---|-----------------------4----4---|
----2-----------2------2-------|-------6----------6-------6-----|
-------------------------------|-----4---------4-------4--------|
--0----------------------------|--------------------------------|

-------------------------------|--0------------------------------|
--3----2----0------------------|--------2----2--------2--------2-|
--2--------------2----1h-2p-1--|------2--------2---2---------2---|
-------------------------------|----2------------2------2--------|
-------------------------------|--0------------------------------|
-------------------------------|---------------------------------|

--------2------------------------|--------0----------------------|
------------4--------4-------4---|-----------4--0------0-------2-|
------4-------4----4-------4---4-|------1------------1-------1---|
----4-----------4------4---------|----2-----------2------2-------|
--2------------------------------|-------------------------------|
---------------------------------|--0----------------------------|

------------------------------------|-----------0-----------------------|
--5-----5----4----4----5----------5-|--------2-----2----------------2---|
--------6----4----4----6----------6-|------2----------2----2------2-----|
----6--------------------6---6------|----2-------------------2----------|
------4-------------4------4--------|--0--------------------------------|
------------------------------------|-----------------------------------|

-------2-----------------------------|
--2----4-------------2----4----------|
--2----4-----4---3---2----4--------4-|
---------4-----------4----6------6---|
--2----------------------------------|
---------------------2------4--------|


  away...                              Believe
-----------5-----------------------------------|
--5-------------5-----------5--------5---------|
--6----------6----6-----6---6--------6---------|
--7------7---7--------7--------------7---------|
-------7------------7---------7----7-----------|
--5--------------------------------------------|

--------7----------------7------------|-----------------------------------|
-------------7-----------7---7--------|--------4---4-----------4---4------|
---------------8-----8---8---8--------|--------------4-----4---4--------4-|
------9------------9----------------9-|------6-6---------6-----6------6---|
----9------------9-----------9--9-----|----6-----------6-----------6------|
--7-----------------------------------|--4--------------------------------|

------------------------------------|--------5-------------------------|
--5-----5---4----4----5-----------5-|-------------5----5--------5------|
--6-----6---4----4----6-----------6-|------------------7------6-6----6-|
--6-6-------------------6-----6---6-|------7----------------7------7---|
------4------------4------4---------|----7---------------7------7------|
------------------------------------|--5-------------------------------|

---------2--------2-------2----------|----------0--------------------|
--2------4------------2---4------4---|-------------4--0----2-------0-|
--2------4------4-----2---4------4---|--------1------------------1---|
----4--------4--------------4--------|------2-----------2-----2------|
--2-------------------2--------------|-------------------------------|
-------------------------------------|--0----------------------------|

--------0--------------------|-------------------------------|
-----------4--0---2--------0-|--L-----5--4-------------------|
------1------------------1---|--------------4----6---------4-|
----2----------------2-------|------6--------------------6---|
-----------------------------|----4-----------4-----4--------|
--0--------------------------|-------------------------------|

-------------------------------|--------0----------------------|
--3----2----0------------------|-----------4--0---------0------|
--2--------------2----1h-2p-1--|------1-----------1----------1-|
-------------------------------|----2-----------2----------2---|
-------------------------------|-------------------------------|
-------------------------------|--0----------------------------|

--------0----------------------|---------------------------------|
-----------4--0------2-------0-|--------5------------------------|
------1------------1-------1---|------------6-4---------6----6---|
----2-----------2------2-------|------6------------6-------6-----|
-------------------------------|----4-----------4-------4--------|
--0----------------------------|---------------------------------|

-------------------------------|--------0-----------------------|
--3----2----0------------------|-----------4--0--------2------0-|
--2--------------2----1h-2p-1--|------1-----------1---------1---|
-------------------------------|----2-----------2--------2------|
-------------------------------|--------------------------------|
-------------------------------|--0-----------------------------|

--------0----------------------|--------------------------------|
-----------4--0------2-------0-|--L------5--4-------------------|
------1------------1-------1---|-----------------------4----4---|
----2-----------2------2-------|-------6----------6-------6-----|
-------------------------------|-----4---------4-------4--------|
--0----------------------------|--------------------------------|

-------------------------------|--0------------------------------|
--3----2----0------------------|--------2----2--------2--------2-|
--2--------------2----1h-2p-1--|------2--------2---2---------2---|
-------------------------------|----2------------2------2--------|
-------------------------------|--0------------------------------|
-------------------------------|---------------------------------|

--------2------------------------|--------0----------------------|
------------4--------4-------4---|-----------4--0------0-------2-|
------4-------4----4-------4---4-|------1------------1-------1---|
----4-----------4------4---------|----2-----------2------2-------|
--2------------------------------|-------------------------------|
---------------------------------|--0----------------------------|

------------------------------------|-----------0-----------------------|
--5-----5----4----4----5----------5-|--------2-----2----------------2---|
--------6----4----4----6----------6-|------2----------2----2------2-----|
----6--------------------6---6------|----2-------------------2----------|
------4-------------4------4--------|--0--------------------------------|
------------------------------------|-----------------------------------|

--0----2-----------------------------|
--2----4-------------2----4----------|
--2----4-----4---3---2----4--------4-|
-----4---4-----------4----6------6---|
--2----------------------------------|
---------------------2------4--------|


  away...                              Believe...
-----------5-----------------------------------|
--5-------------5-----------5--------5---------|
--6----------6----6-----6---6--------6---------|
--7------7------------7--------------7---------|
-------7-----7------7---------7----7-----------|
--5--------------------------------------------|

--------7----------------7------------|-----------------------------------|
-------------7-----------7---7--------|--------4---4-----------4---4------|
---------------8-----8---8---8--------|--------------4-----4---4--------4-|
------9------------9----------------9-|------6-----------6-----6------6---|
----9------------9-----------9--9-----|----6-----------6-----------6------|
--7-----------------------------------|--4--------------------------------|

------------------------------------|--------5-------------------------|
--5-----5---4----4----5-----------5-|-------------5----5--------5------|
--6-----6---4----4----6-----------6-|------------------6------6-6----6-|
--6-6-------------------6-----6---6-|------7----------------7------7---|
------4------------4------4---------|----7---------------7------7------|
------------------------------------|--5-------------------------------|

---------2--------2-------2----------|
--2------4------------2---4----------|
--2------4------4-----2---4------4---|
----4--------4--------------4--------|
--2-------------------2--------------|
-------------------------------------|


  Interlude
--2-------------0--------5---2--0----------|
--3-----------3------------------------3---|
------------2-------2----------------2-----|
------------------0--------0------0--------|
-------------------------------------------|
-------------------------------------------|

--5-------5--------5-------------------|
----------7--------7--------7----------|
------7------------7--------7----------|
----7---------7--------7----------7----|
------------5--------5--------5--------|
---------------------------------------|

------------------------------------------|
----4----------------4------4-----------4-|
------------4--------4--------4-------4---|
--------6--------6-------6---------6------|
------6----------------6--------6---------|
--4-------------------------------------4-|

---------------------------------------|
--L-------4----4---4------------4------|
----4-----4----4---4------4-----4------|
------6--------6--------6---6---6------|
--------6------------6-----------------|
--L---------------------------4--------|

-----------------------------------------0-|
----2--------2------2-------------4------2-|
----2----2-----2----2---------2---4------2-|
-------4-----4--------4---4---4---6--------|
-----------4--------------------4--------0-|
----2-------------------------------4------|

--L----------0------0---------------|--------2--------------4----4----|
--L--------2--------2-----2-----2---|--2-----4-------4-4----6----6----|
--L--2---2------------2---2-----2---|--2-----4-----4---4----6----6----|
-------2------------2---2---2---2---|-----4----4---4------6---6-------|
--L---------------------------------|--2---------------4--------------|
------------------------------------|---------------------------------|


  Believe...
--2-------2------2----2------2------|----------4----------4----4-----------|
--4-------4------4----4------4----4-|------6---6-----6----6----6-------6---|
--4-------4----4------4------4--4---|----6-----6---6------6----6-----6-----|
------------4-----------4----4------|--------------------------------------|
--2---------------------------------|--4-------------------------4---------|
------------------------------------|--------------------------------------|

--------1------------1---1--------|-----------------------------------|
--------2----------2-----2----2---|--7-----7---6----6-L--7-----7----7-|
------3----------3-------3--3-----|--8-----8---6----6-L--8-----8----8-|
----3---------3----------3--------|--8-8---8---8----8------8---8----8-|
--1-------------------------------|------6-------------------6--------|
----------------------------------|-----------------------------------|

---------2-----2----2-----2------|------4----------4----4----4---|
---------4-----4----4-----4----4-|--4---6------6---6----6----6---|
-------4---4---4----4---4----4---|--4---6----6-----6----6----6---| (Repeat
-----4-------4--------4---4------|--------6-----------6-6-6------|  2x till
--2------------------------------|--4--------------4-------------|  fade)
---------------------------------|-------------------------------|

(For Kyla's version repeat the pattern for two times then so the intro pattern but two 
higher then end with F#.)

Tablature Legend
----------------
L - tied note
h - hammer on
p - pull off
comments
We did not receive enough feedback on this tab! Please rate:
print report bad tab
1 2 3 4 5
I want to post or [tab]
guest
You may want to rate the tab now too:
select rating
Please do not post tabs as comments. Select "correction" instead!