Oops, an error
Loading. Please wait.

Holes Tab

by Cog
315 views 1 this week
no commentswrite comment
1 2 3 4 5
worth learning
x 2
Autoscroll
+/-
esc
set tempo
stop
WARNING: You are trying to view
                                    content from Ultimate-Guitar.com
                                    in an unauthorized application,
                                    which is prohibited.

                                    Please use an official Ultimate
                                    Guitar Tabs application for iPhone,
                                    iPad or Android to access legitimate
                                    chords, guitar, bass, and drum tabs
                                    from Ultimate-Guitar.com database.

                                    Type "ultimate guitar tabs" in Apple
                                    App Store's or Android Market's
                                    search to find the application.
www.cog.com.au
COG are a 3 piece band hailing from Bondi, Sydney, Australia.

Band - Cog
Song - Holes
Album - Just Visiting Part 1

This song tabbed by: Ben McMillan (Familiar7@hotmail.com)

h - hammer on
p - pull off
/ - slide up
\ - slide down
pm - palm muting
^ - Bend
Tuning - Drop D and down a step (Drop C)

C|-------------------------------------------------------------------|
A|-------------------------------------------------------------------|
F|-------------------------------------------------------------------|
C|-------------------------------------------------------------------| X2
G|-------------------------------------------------------------------|
C|-10\4-4-4-4/10-10\4-4-4-4/10-10\5-5-5-5/10-10\4-4-4-5-5------------|


e|-------------------------------------------------------------------|
B|-------------------------------------------------------------------|
G|-------------------------------------------------------------------|
D|-10\4-4-4-4/10-10\4-4-4-4/10-10\5-5-5-5/10-10\4-4-4-5-5------------| X2
A|-10\4-4-4-4/10-10\4-4-4-4/10-10\5-5-5-5/10-10\4-4-4-5-5------------|
D|-10\4-4-4-4/10-10\4-4-4-4/10-10\5-5-5-5/10-10\4-4-4-5-5------------|


e|-------------------------------------------   \
B|-------------------------------------------    \ 
G|-------------------------------------------     |
D|-------------------4--------------------4--     |
A|-pm->--------------4--pm->--------------4--     |
D|-5-4-2-2-4-5-5-4-2-4--5-4-2-2-4-5-5-4-2-4--     |
                                                  |  X3
---------------------------------------------|    |
---------------------------------------------|    |
---------------------------------------------|    |
------------------4--------------------------|    |
pm->--------------4--pm->--------------------|   /
5-4-2-2-4-5-5-4-2-4--5-4-2-2-4-5-5-4-2-2-4-5-|  /


e|-------------------------------------------   \
B|-------------------------------------------    \
G|-------------------------------------------     |
D|-------------------4--------------------4--     |
A|-pm->--------------4--pm->--------------4--     |
D|-5-4-2-2-4-5-5-4-2-4--5-4-2-2-4-5-5-4-2-4--     |
                                                  | X1
---------------------------------------------|    |
---------------------------------------------|    |
---------------------------------------------|    |
------------------4--------------------------|    |
pm->--------------4--pm->--------------------|   / 
5-4-2-2-4-5-5-4-2-4--5-4-2-5-4-2-5-4-2-5-4-2-|  /


e|---------------------------------------------------------- \
B|----------------------------------------------------------  \
G|--------------------------11---------------------------11-   |
D|-10-10-10-10--10-10-10-10-10--10-10-10-10--10-10-10-10-10-   |
A|----------------------------------------------------------   |
D|----------------------------------------------------------   |
                                                               | X1
----------------------------------------------------------|    |
----------------------------------------------------------|    |
--------------------------11-----------11-----------11----|    |
-10-10-10-10--10-10-10-10-10--10-10-10-10--10-10-10-10----|    |
----------------------------------------------------------|   /
----------------------------------------------------------|  /

e|--------------------------------------------  \
B|--------------------------------------------   \
G|--------------------------------------------    |
D|-------------------4-2-------------------4-2    |
A|-pm->--------------4-2-pm->--------------4-2    |
D|-5-4-2-2-4-5-5-4-2-4-2-5-4-2-2-4-5-5-4-2-4-2    |
                                                  | X3
-----------------------------------------------|  |
-----------------------------------------------|  |
-----------------------------------------------|  |
-------------------4-2-------------------------|  |
-pm->--------------4-2-pm->--------------------| /
-5-4-2-2-4-5-5-4-2-4-2-5-4-2-2-4-5-5-4-2-2-4-5-|/


e|--------------------------------------------   \
B|--------------------------------------------    \
G|--------------------------------------------     |
D|-------------------4-2-------------------4-2     |
A|-pm->--------------4-2-pm->--------------4-2     |
D|-5-4-2-2-4-5-5-4-2-4-2-5-4-2-2-4-5-5-4-2-4-2     |
                                                   | X1
-----------------------------------------------|   |
-----------------------------------------------|   |
-----------------------------------------------|   |
-------------------4-2-------------------------|   |
-pm->--------------4-2-pm->--------------------|  /
-5-4-2-2-4-5-5-4-2-4-2-5-4-2-5-4-2-5-4-2-5-4-2-| /

e|---------------------------------------------------------- \
B|----------------------------------------------------------  \
G|--------------------------11---------------------------11-   |
D|-10-10-10-10--10-10-10-10-10--10-10-10-10--10-10-10-10-10-   |
A|----------------------------------------------------------   |
D|----------------------------------------------------------   |
                                                               | X1
----------------------------------------------------------|    |
----------------------------------------------------------|    |
--------------------------11-----------11-----------11----|    |
-10-10-10-10--10-10-10-10-10--10-10-10-10--10-10-10-10----|    |
----------------------------------------------------------|   /
----------------------------------------------------------|  /

e|-------------------------------------------------------------------|
B|-------------------------------------------------------------------|
G|-------------------------------------------------------------------|
D|-10\4-4-4-4/10-10\4-4-4-4/10-10\5-5-5-5/10-10\4-4-4-5-5------------| X2
A|-10\4-4-4-4/10-10\4-4-4-4/10-10\5-5-5-5/10-10\4-4-4-5-5------------|
D|-10\4-4-4-4/10-10\4-4-4-4/10-10\5-5-5-5/10-10\4-4-4-5-5------------|

e|-------------------------------------------------------------------|
B|-------------------------------------------------------------------|
G|-------------------------------------------------------------------|
D|------------------------------------------------------------2/4-4--| X1
A|------------------------------------------------------------2/4-4--|
D|-10-10-10-10-11-11-11-11-14-15-16--10-10-10-10-11-11-11-11--2/4-4--|

e|--------------------------------------------------------------------------|
B|--------------------------------------------------------------------------|
G|--------------------------------------------------------------------------|
D|-9\2----------------------------------9\2---------------------------------| X2
A|-9\2-------------------------------7--9\2-2h4h5-5p4p2-2h4h5-5p4p2-2h4h5-7-|
D|-9\2-2h4h5-5p4p2-2h4h5-5p4p2-2h4h5-7--9\2-2h4h5-5p4p2-2h4h5-5p4p2-2h4h5-7-|

e|--------------------------------------------------------------------------|
B|--------------------------------------------------------------------------|
G|--------------------------------------------------------------------------|
D|-9\2----------------------------------9\2-------------------------------7-| X1
A|-9\2-2h4h5-5p4p2-2h4h5-5p4p2-2h4h5-7--9\2-2h4h5-5p4p2-2h4h5-5p4p2-2h4h5-7-|
D|-9\2-2h4h5-5p4p2-2h4h5-5p4p2-2h4h5-7--9\2-2h4h5-5p4p2-2h4h5-5p4p2-2h4h5-7-|

e|----------------------------------------------------------------------------|
B|----------------------------------------------------------------------------|
G|----------------------------------------------------------------------------|
D|-9\2-------------------------------7--9\2-----------------------------------|
A|-9\2-2h4h5-5p4p2-2h4h5-5p4p2-2h4h5-7--9\2-2h4h5-5p4p2-2h4h5-5p4p2-2h4h5-555-|
D|-9\2-2h4h5-5p4p2-2h4h5-5p4p2-2h4h5-7--9\2-2h4h5-5p4p2-2h4h5-5p4p2-2h4h5-555-|

(Guitar solo)
e|---------------------------------------------------------|
B|---------------------------------------------10-10-10-10-|
G|-11-11-11-11-11-11-11-11-11-10-10-10-10-10-10------------|
D|---------------------------------------------------------| X2
A|---------------------------------------------------------|
D|---------------------------------------------------------|

e|---------------------------------------------------------|
B|----------------------------------------17-17-17-17------|
G|-19-19-19-19-19-19-18-18-18-17-17-17-17------------------|
D|---------------------------------------------------------| X2
A|---------------------------------------------------------|
D|---------------------------------------------------------|

e|-------------------------------------17-17-17-17---------|
B|-19-19-19-19-18-18-18-18-18-18-18-18---------------------|
G|---------------------------------------------------------|
D|---------------------------------------------------------| X2
A|---------------------------------------------------------|
D|---------------------------------------------------------|

e|--------------------------------------------------------------------------|
B|--------------------------------------------------------------------------|
G|--------------------------------------------------------------------------|
D|-------------------------------10-10--------------------------------10-10-| X1
A|-2-2-3p2p0-2-2-3p2p0-2-2-3p2p0-10-10--2-2-3p2p0-2-2-3p2p0-2-2-3p2p0-10-10-|
D|-2-2-3p2p0-2-2-3p2p0-2-2-3p2p0-10-10--2-2-3p2p0-2-2-3p2p0-2-2-3p2p0-10-10-|

e|------------------------------------------------------------------------|
B|------------------------------------------------------------------------|
G|------------------------------------------------------------------------|
D|-------------------------------10-10------------------------------------| X1
A|-2-2-3p2p0-2-2-3p2p0-2-2-3p2p0-10-10--2-2-3p2p0-3-3\2-2-9-9\8-8/9-9\8-8-|
D|-2-2-3p2p0-2-2-3p2p0-2-2-3p2p0-10-10--2-2-3p2p0-3-3\2-2-9-9\8-8/9-9\8-8-|

e|-------------------------------------------------------|
B|-------------------------------------------------------|
G|-------------------------------------------------------|
D|-2--0--2--0--2--0--2/10-10---2--0--2--0--2--0--2/10-10-| X1
A|-2--0--2--0--2--0--2/10-10---2--0--2--0--2--0--2/10-10-|
D|-2--0--2--0--2--0--2/10-10---2--0--2--0--2--0--2/10-10-|

e|-------------------------------------------------------|
B|-------------------------------------------------------|
G|-------------------------------------------------------|
D|-2--0--2--0--2--0--2/10-10---2--0--2--0--2/10-10-10-10-| X1
A|-2--0--2--0--2--0--2/10-10---2--0--2--0--2/10-10-10-10-|
D|-2--0--2--0--2--0--2/10-10---2--0--2--0--2/10-10-10-10-|

e|--------------------------------------------------------|
B|--------------------------------------------------------|
G|--------------------------------------------------------|
D|-10\4-4-4-4/10-10\4-4-4-4/10-10\5-5-5-5/10-10\4-4-4-5-5-| X3
A|-10\4-4-4-4/10-10\4-4-4-4/10-10\5-5-5-5/10-10\4-4-4-5-5-|
D|-10\4-4-4-4/10-10\4-4-4-4/10-10\5-5-5-5/10-10\4-4-4-5-5-|

e|-----------------------------------------------------------------------|
B|-----------------------------------------------------------------------|
G|-----------------------------------------------------------------------|
D|-------------------------------------------------------------2--2--2-2-| X1
A|-------------------------------------------------------------2--2--2-2-|
D|-10-10-10-10-11-11-11-11-14-15-16---10-10-10-10-11-11-11-11--2--2--2-2-|

This song tabbed by: Ben McMillan (Familiar7@hotmail.com)

copyright cog/gower/borich/gower 2002.
comments
We did not receive enough feedback on this tab! Please rate:
print report bad tab
1 2 3 4 5
I want to post or [tab]
guest
You may want to rate the tab now too:
select rating
Please do not post tabs as comments. Select "correction" instead!