Oops, an error
Loading. Please wait.

2113 Bass Tab

ver2
ver2

Whole song

Interactive

More versions @911Tabs.com
637 views 1 this week
1 commentread comment
1 2 3 4 5
please rate
add to favorites launch autoscroll
font size
0
reset
Autoscroll
+/-
esc
set tempo
stop
Contributor
WARNING: You are trying to view
                                    content from Ultimate-Guitar.com
                                    in an unauthorized application,
                                    which is prohibited.

                                    Please use an official Ultimate
                                    Guitar Tabs application for iPhone,
                                    iPad or Android to access legitimate
                                    chords, guitar, bass, and drum tabs
                                    from Ultimate-Guitar.com database.

                                    Type "ultimate guitar tabs" in Apple
                                    App Store's or Android Market's
                                    search to find the application.
#----------------------------------PLEASE NOTE---------------------------------#
#This file is the author's own work and represents their interpretation of the #
#song. You may only use this file for private study, scholarship, or research. #
#------------------------------------------------------------------------------#

2113 (Bassline)
As recorded by Coheed and Cambria

Transcribed by mickeyblue
	



Gtr I (D A D G) - 'Bass'

 Intro
  Moderately Q=160
 4/4
  Gtr I
  H    E E E E   +W           +H     E E E E   +W           +H      H
|--------------|------------|----------------|------------|---------------|
|--------------|------------|----------------|------------|---------------|
|------------6-|-(6)--------|-(6)----------6-|-(6)--------|-(6)-----------|
|------8-8-8---|------------|--------8-8-8---|------------|--------15\----|


  E H.      E   H.      E E   E H.      E   W
|-------------|-------------|-------------|------|
|-------------|-------------|-------------|------|
|-------------|-----------6-|-6-----------|------|
|-0-----------|-------------|-------------|------|


  E E E E E E Q    Q  Q  Q  Q    Q  Q  Q  Q    Q  Q  E E E E
|----------------|-------------|-------------|----------------|
|----------------|-------------|-------------|----------------|
|---6-5-5-----5--|----------5--|----------5--|---------5-6-8--|
|---------5------|----5--------|----5--------|----5-----------|


  E E E E E E Q    Q  Q  Q   Q    E E E E E E Q    Q  Q  Q  Q
|----------------|--------------|----------------|--------------|
|----------------|--------------|----------------|--------------|
|---6-6-6-----6--|----8-----10--|---6-6-6-----6--|----8-----6---|
|---------6------|--------------|---------6------|--------------|


  Q  E E E E Q    Q  Q  Q  Q    Q  Q  Q  Q    Q  Q  E E E E
|---------------|-------------|-------------|----------------||
|---------------|-------------|-------------|----------------||
|----6-5-----5--|----------5--|----------5--|---------5-6-8--||
|--------5------|----5--------|----5--------|----5-----------||


 Verse
  E E E E E E Q    Q  Q  Q  Q    Q  Q  Q  Q    Q  Q  Q  Q
|----------------|-------------|-------------|--------------|
|----------------|-------------|-------------|--------------|
|---6-6-6-----6--|----6-----6--|----6-----6--|----6-----6---|
|---------6------|-------------|-------------|--------------|


  Q  E E E E Q    Q  Q  Q  Q    Q  Q  Q  Q    Q  Q  Q  Q
|---------------|-------------|-------------|--------------|
|---------------|-------------|-------------|--------------|
|----6-5-----5--|----------5--|----------5--|----------5---|
|--------5------|----5--------|----5--------|----5---------|


  E E E E E E Q    Q  Q  Q  Q    Q  Q  Q  Q    Q  Q  Q  Q
|----------------|-------------|-------------|--------------|
|----------------|-------------|-------------|--------------|
|---6-6-6-----6--|----------6--|----6-----6--|----6-----6---|
|---------6------|-0--0--------|-------------|--------------|


  Q  E E E E Q    Q  Q  Q  Q    Q  Q  Q  Q    Q  Q  Q  Q
|---------------|-------------|-------------|--------------|
|---------------|-------------|-------------|--------------|
|----6-5-----5--|----------5--|----------5--|----------5---|
|--------5------|----5--------|----5--------|----5---------|


  E E E E E E Q    Q  Q  Q   Q    E E E E E E Q    Q  Q  Q   Q
|----------------|--------------|----------------|---------------|
|----------------|--------------|----------------|---------------|
|---6-6-6-----6--|----8-----10--|---6-6-6-----6--|----8-----10---|
|---------6------|--------------|---------6------|---------------|


  Q  E E E E Q    Q  Q  Q  Q    Q  Q  Q  Q    Q  Q  E E E E
|---------------|-------------|-------------|----------------|
|---------------|-------------|-------------|----------------|
|----6-5-----5--|----------5--|----------5--|---------5-6-8--|
|--------5------|----5--------|----5--------|----5-----------|


  E E E E E E Q    Q  Q  Q  Q    Q  Q  Q  Q    Q  Q  Q  Q
|----------------|-------------|-------------|--------------|
|----------------|-------------|-------------|--------------|
|---6-6-6-----6--|----6-----6--|----6-----6--|----6-----6---|
|---------6------|-------------|-------------|--------------|


  Q  E E E E Q    Q  Q  Q  Q    Q  Q  Q  Q    Q  Q  E E E E
|---------------|-------------|-------------|----------------||
|---------------|-------------|-------------|----------------||
|----6-5-----5--|----5-----5--|----------5--|---------5-6-8--||
|--------5------|-------------|----5--------|----5-----------||


 Pre-Chorus
  E E E E E E E E   E E E E E E E E   E E E E E E E E   E E E E E E E E
|-----------------|-----------------|-----------------|------------------|
|-----------------|-----------------|-----------------|------------------|
|-6-6-6-6-6-6-6-6-|-6-6-6-6-6-6-6-6-|-6-6-6-6-6-6-6-6-|-6-6-6-6-6-6-6----|
|-----------------|-----------------|-----------------|---------------0--|


  E E E E E E E E   E E E E E E E E   E E E E E E E E   E E E E E E E E
|-----------------|-----------------|-----------------|------------------|
|-----------------|-----------------|-----------------|------------------|
|-----------------|-----------------|-----------------|------------------|
|-5-5-5-5-5-5-5-5-|-5-5-5-5-5-5-5-5-|-5-5-5-5-5-5-5-5-|-5-5-5-5-5-5-5-0--|


  E E E E E E E E   E E E E E E E E   E E E E E E E E   E E E E E E E E
|-----------------|-----------------|-----------------|------------------|
|-----------------|-----------------|-----------------|------------------|
|-6-6-6-6-6-6-6-6-|-6-6-6-6-6-6-6-6-|-6-6-6-6-6-6-6-6-|-6-6-6-6-6-6-6----|
|-----------------|-----------------|-----------------|---------------0--|


  E E E E E E E E   E E E E E E E E   E E E E E E E E   E E E E E E E E
|-----------------|-----------------|-----------------|------------------||
|-----------------|-----------------|-----------------|------------------||
|-----------------|-----------------|-----------------|------------------||
|-5-5-5-5-5-5-5-5-|-5-5-5-5-5-5-5-5-|-5-5-5-5-5-5-5-5-|-5-5-5-5-5-5-5-0--||


 Verse
  E E E H    E   Wx3          Q  E E E E Q
|--------------|------------|---------------|
|---8----------|------------|---------------|
|-6---6--------|------------|----6-5-----5--|
|--------------|------------|--------5------|


  Q  Q  Q  Q    Q  Q  Q  Q    Q  Q  E E E E
|-------------|-------------|----------------|
|-------------|-------------|----------------|
|----------5--|----------5--|---------5-6-8--|
|----5--------|----5--------|----5-----------|


  E E E E E E Q    Q  Q  Q  Q    Q  Q  Q  Q    Q  Q  Q  Q
|----------------|-------------|-------------|--------------|
|----------------|-------------|-------------|--------------|
|---6-6-6-----6--|----6-----6--|----6-----6--|----6-----6---|
|---------6------|-------------|-------------|--------------|


  Q  E E E E Q    Q  Q  Q  Q    Q  Q  Q  Q    Q  Q  E E E E
|---------------|-------------|-------------|----------------|
|---------------|-------------|-------------|----------------|
|----6-5-----5--|----------5--|----------5--|---------5-6-8--|
|--------5------|----5--------|----5--------|----5-----------|


  E E E E E E Q    Q  Q  Q  Q    Q  Q  Q  Q    Q  Q  Q  Q
|----------------|-------------|-------------|--------------|
|----------------|-------------|-------------|--------------|
|---6-6-6--------|----------6--|----6-----6--|----6-----6---|
|---------6---0--|-2--3--------|-------------|--------------|


  Q  E E E E Q    Q  Q  Q  Q    Q  Q  Q  Q    Q  Q  Q  Q
|---------------|-------------|-------------|--------------||
|---------------|-------------|-------------|--------------||
|----6-5-----5--|----------5--|----------5--|----------5---||
|--------5------|----5--------|----5--------|----5---------||


 Pre-Chorus
  E E E E E E E E   E E E E E E E E   E E E E E E E E   E E E E E E E E
|-----------------|-----------------|-----------------|------------------|
|-----------------|-----------------|-----------------|------------------|
|-6-6-6-6-6-6-6-6-|-6-6-6-6-6-6-6-6-|-6-6-6-6-6-6-6-6-|-6-6-6-6-6-6-6----|
|-----------------|-----------------|-----------------|---------------0--|


  E E E E E E E E   E E E E E E E E   E E E E E E E E   E E E E E E E E
|-----------------|-----------------|-----------------|------------------|
|-----------------|-----------------|-----------------|------------------|
|-----------------|-----------------|-----------------|------------------|
|-5-5-5-5-5-5-5-5-|-5-5-5-5-5-5-5-5-|-5-5-5-5-5-5-5-5-|-5-5-5-5-5-5-5-0--|


  E E E E E E E E   E E E E E E E E   E E E E E E E E   E E E E E E E E
|-----------------|-----------------|-----------------|------------------|
|-----------------|-----------------|-----------------|------------------|
|-6-6-6-6-6-6-6-6-|-6-6-6-6-6-6-6-6-|-6-6-6-6-6-6-6-6-|-6-6-6-6-6-6-6----|
|-----------------|-----------------|-----------------|---------------0--|


  E E E E E E E E   E E E E E E E E   E E E E E E E E   E E E E E E E E
|-----------------|-----------------|-----------------|------------------||
|-----------------|-----------------|-----------------|------------------||
|-----------------|-----------------|-----------------|------------------||
|-5-5-5-5-5-5-5-5-|-5-5-5-5-5-5-5-5-|-5-5-5-5-5-5-5-5-|-5-5-5-5-5-5-5-0--||


 Chorus
  E E E E E E E E   E E E E E E E E   E E E E E E E E   E E E E E E E E
|-----------------|-----------------|-----------------|------------------|
|-----------------|-----------------|-----4-----2-----|-0-----2-----2-0--|
|-6-5-----6-5-----|-6-5-----6-5-----|-2-2---2-2---2-2-|---2-2---2-2------|
|-----0-0-----0-0-|-----0-0-----0-0-|-----------------|------------------|


  E E E E E E E E   E  E E E E E E E   E E E E E E E E   E E E E E E E E
|-----------------|------------------|-----------------|------------------|
|-----------------|------------------|-----------------|------------------|
|-----7---9---7---|-9-10-9---7---9---|-----------------|------------------|
|-7-7---7---7---7-|--------7---7---7-|-5-5-5-5-5-5-5-5-|-4-4-4-4-4-4-4-4--|


  E E E E E E E E   E E E E E E E E   E E E E E E E E   E E E E E E E E
|-----------------|-----------------|-----------------|------------------|
|-----------------|-----------------|-----------------|------------------|
|-6-5-----6-5-----|-6-5-----6-5-----|-2-2-2-2-2-2-2-2-|-2-2-2-2-2-2-2-2--|
|-----0-0-----0-0-|-----0-0-----0-0-|-----------------|------------------|


  E E E E E E E E   E E E E E E E E   E E E E E E E E   E E E E E E E E
|-----------------|-----------------|-----------------|------------------|
|-----------------|-----------------|-----------------|------------------|
|-0-0-0-0-0-0-0-0-|-0-0-0-0-0-0-0-0-|-----------------|------------------|
|-----------------|-----------------|-5-5-5-5-5-5-5-5-|-4-4-4-4-4-4-4-4--|


  E E E E E E E E   E E E E E E E E   E E E E E E E E   E E E E E E E E
|-----------------|-----------------|-----------------|------------------|
|-----------------|-----------------|-----------------|------------------|
|-6-5-----6-5-----|-6-5-----6-5-----|-2-2-2-2-2-2-2-2-|-2-2-2-2-2-2-2-2--|
|-----0-0-----0-0-|-----0-0-----0-0-|-----------------|------------------|


  E E E E E E E E   E E E E E E E E   E E E E E E E E   E E E E E E E E
|-----------------|-----------------|-----------------|------------------||
|-----------------|-----------------|-----------------|------------------||
|-0-0-0-0-0-0-0-0-|-0-0-0-0-0-0-0-0-|-----------------|------------------||
|-----------------|-----------------|-5-5-5-5-5-5-5-5-|-4-4-4-4-4-4-5-7--||


 Guitar Break
  W          +W           W          +W           W          +H.       Q
|----------|------------|----------|------------|----------|----------------|
|----------|------------|----------|------------|----------|----------------|
|----------|------------|----------|------------|----------|----------12\---|
|-0--------|-(0)--------|-0--------|-(0)--------|-0--------|-(0)------------|


  E E E E E E E E   E E E E E E E E   E E E E Q  Q    E E E E Q  Q
|-----------------|-----------------|---------------|---------------|
|-----------------|-----------------|---------------|---------------|
|-----------------|-----------------|---------------|---------------|
|-0-3-5-0-3-5-0-3-|-5-0-3-5-0-3-5-0-|-3-5-0-3-0--0--|-3-5-0-3-0--0--|


  E E E E E E E E   E E E E E E E E   E E E E Q  Q    E E E E Q  Q
|-----------------|-----------------|---------------|---------------|
|-----------------|-----------------|---------------|---------------|
|-----------------|-----------------|---------------|---------------|
|-3-5-0-3-5-0-3-5-|-0-3-5-0-3-5-0-3-|-5-0-3-5-0--0--|-0-3-5-3-0--0--|


  E E E E E E E E   E E E E E E E E   E E E E Q  Q    E E E E Q  Q
|-----------------|-----------------|---------------|---------------||
|-----------------|-----------------|---------------|---------------||
|-----------------|-----------------|---------------|---------------||
|-3-5-0-3-5-0-3-5-|-0-3-5-0-3-5-0-3-|-5-0-3-5-0--0--|-0-3-5-3-0--0--||


 Interlude
                                |-3-|                                 |-3-|
  E E E E E E E E   E E E E E E E E E   E E E E E E E E   E E E E E E E E E
|-----------------|-------------------|-----------------|---------------------|
|-----------------|-------------------|-----------------|---------------------|
|-----------------|-------------------|-----------------|---------------------|
|-3-2---3-2---3-2-|---3-2-3-5-5-3-2-0-|-3-2---3-2---3-2-|---3-2-3-5-5-3-2-0---|


  E E E E E E E E   E E E E E E E E   E E E E E E E E   E E E E E E E E
|---------4-4-----|-----------------|---------4-4-----|-----------------|
|-----7-7-----5-5-|-7-7-------------|-----7-7-----5-5-|-7-7-------------|
|-5-5-------------|-----5-5-3-3-0-0-|-5-5-------------|-----5-5-3-3-0-0-|
|-----------------|-----------------|-----------------|-----------------|


                                |-3-|                                 |-3-|
  E E E E E E E E   E E E E E E E E E   E E E E E E E E   E E E E E E E E E
|-----------------|-------------------|-----------------|---------------------|
|-----------------|-------------------|-----------------|---------------------|
|-----------------|-------------------|-----------------|---------------------|
|-3-2---3-2---3-2-|---3-2-3-5-5-3-2-0-|-3-2---3-2---3-2-|---3-2-3-5-5-3-2-0---|


  E E E E E E E E   E E E E E E E E   E E E E E E E E   E E E E E E E E
|---------4-4-----|-----------------|---------4-4-----|-----------------||
|-----7-7-----5-5-|-7-7-------------|-----7-7-----5-5-|-7-7-------------||
|-5-5-------------|-----5-5-3-3-0-0-|-5-5-------------|-----5-5-3-3-0-0-||
|-----------------|-----------------|-----------------|-----------------||


 Breakdown
  W          +W           W          +W           W          W
|----------|------------|----------|------------|----------|------|
|----------|------------|----------|------------|----------|------|
|----------|------------|-5--------|-(5)--------|-3--------|-2----|
|-0--------|-(0)--------|----------|------------|----------|------|


  E E E E E E E E   Q  Q  Q  Q    E E E E E E E E   Q  Q  Q  Q
|-----------------|-------------|-----------------|--------------|
|---------3-5-----|-------------|---------3-5-----|--------------|
|-5-5-5-------5-5-|-5--------3--|-5-5-5-------5-5-|-5--------3---|
|-----------------|----3--5-----|-----------------|----3--5------|


  H    H      H    H      H    H      H    H      W          W
|-----------|-7---------|------2----|-5----2----|----------|------|
|------7----|------7----|-0---------|-----------|----------|------|
|-----------|-----------|-----------|-----------|-3--------|-2----|
|-0---------|-----------|-----------|-----------|----------|------|


  E E E E E E E E   Q  Q  Q  Q    E E E E E E E E   Q  Q  Q  Q
|-----------------|-------------|-----------------|--------------|
|---------3-5-----|-------------|---------3-5-----|--------------|
|-5-5-5-------5-5-|-5--------3--|-5-5-5-------5-5-|-5--------3---|
|-----------------|----3--5-----|-----------------|----3--5------|


  E E E Q.   E E   Q  Q  Q  Q    E E E Q.   E E   Q  Q  Q  Q
|----------------|-------------|----------------|--------------|
|----------------|-------------|----------------|--------------|
|----------------|-------------|----------------|--------------|
|-1-1-1------1-1-|-1--1--3--1--|-1-1-1------1-1-|-1--3--5--3---|


  E E E E E E E E   Q  Q  Q  Q    E E E E E E E E   Q  Q  Q  Q
|-----------------|-------------|-----------------|--------------|
|---------3-5-----|-------------|---------3-5-----|--------------|
|-5-5-5-------5-5-|-5--------3--|-5-5-5-------5-5-|-5--------3---|
|-----------------|----3--5-----|-----------------|----3--5------|


  E E E Q.   E E   Q  Q  Q  Q    E E E Q.   E E   Q  Q  Q  Q
|----------------|-------------|----------------|--------------||
|----------------|-------------|----------------|--------------||
|----------------|-------------|----------------|--------------||
|-1-1-1------1-1-|-1--1--3--1--|-1-1-1------1-1-|-1--3--5--3---||


 Guitar Solo
                    |-3-| |-3-| |-3-|
  E E E E E E E E   E E E E E E E E E Q
|-----------------|----------------------|
|-----------------|-0-2-4-0-4-5-7-5-4----|
|-----------------|-------------------7--|
|-0-2-4-0-5-7-9-0-|----------------------|


  Q=110
 3/4
  S S S S S S S S S E.   S S S S S S S S S E.    S  S  S  S  S  S  S  S  S  E.
|-2-0-0----------------|-------7---7-6-4------|-------11-12-14-12-11-----------|
|-------5-4-4-2-2-2-0--|----------------------|--------------------------------|
|----------------------|-6-7-9-----------9-7--|----12----------------12-10-----|
|----------------------|----------------------|-12-------------------------12--|


   S  S S  S  S S  S  S S  S  S S    E  E  S  S  S  S S  E.
|-12-11-9---------12-11-9---------|-------------------------|
|---------12-10-9---------12-10-9-|-12-12-12-12-12-10-9-----|
|---------------------------------|---------------------12--|
|---------------------------------|-------------------------|


  Q=130
 11/4
  |-3-| |3| |3| |---3---|   |-3-| |3| |3| |-3-|
  E E E Q E Q E Q.  Q.  Q.  E E E Q E Q E Q.  Q.
|-------------------------------------------------|
|-------------------------------------------------|
|---------------------------------------------5---|
|-0-5-7-8-8-7-5-7---3---0---0-5-7-8-8-7-5-7-------|


  |-3-| |3| |3| |---3---|   |-3-| |3| |3| |-3-|
  E E E Q E Q E Q.  Q.  Q.  E E E Q E Q E Q.  Q.
|-------------------------------------------------|
|-------------------------------------------------|
|---------------------------------------------5---|
|-0-5-7-8-8-7-5-7---3---0---0-5-7-8-8-7-5-7-------|


  |-3-| |3| |3| |---3---|   |-3-| |3| |3| |-3-|
  E E E Q E Q E Q.  Q.  Q.  E E E Q E Q E Q.  Q.
|-------------------------------------------------|
|-------------------------------------------------|
|---------------------------------------------5---|
|-0-5-7-8-8-7-5-7---3---0---0-5-7-8-8-7-5-7-------|


  |-3-| |3| |3| |---3---|   |-3-| |3| |3| |-3-|
  E E E Q E Q E Q.  Q.  Q.  E E E Q E Q E Q.  Q.
|-------------------------------------------------|
|-------------------------------------------------|
|---------------------------------------------5---|
|-0-5-7-8-8-7-5-7---3---0---0-5-7-8-8-7-5-7-------|


  Q=160
 4/4
  W          +W           +W
|----------|------------|--------||
|----------|------------|--------||
|----------|------------|--------||
|-0--------|-(0)--------|-(0)----||


 Time Consumer
   E  Q.    Q   E  E   Q   Q   Q   E E
|--------------------|-----------------|
|--------------------|-----------------|
|----------12--12----|--------12-------|
|-12-12-----------12-|----12------12---|


   E  Q.    Q   E  E   E  E  E  E  Q   Q
|--------------------|----------------------|
|--------------------|----------------------|
|----------12--12----|----------------------|
|-12-12-----------12-|---14-15-14-15--14\---|


  H    E E E E   +E  Q  Q  Q  E   E E E E E E E E   +E  Q  Q  E E E
|--------------|----------------|-----------------|------------------|
|--------------|----------------|-----------------|------------------|
|------8-------|----------------|-----------------|-------------7-8--|
|-8------8-8-8-|-(8)-7--5--3--2-|-0-0-0-0-5-5-5-3-|-(3)-2--0---------|


  H    Q.   E   E E Q  E E E  E    Q   Q   Q   E  E   E  E  E  E  Q   +Q
|-------------|-----------------|-------------------|------------------------|
|-------------|-----------------|-------------------|------------------------|
|------8------|--------8-7-8s10-|---------10--------|---------12-------------|
|-8---------8-|---x-8-----------|-10--10------10-10-|---10-12----12--(12)\---|


  W           W          W          +W
|----------|-----------|----------|--------||
|----------|-----------|----------|--------||
|----------|-----------|-5--------|-(5)----||
|-5--------|-10--------|-0--------|-(0)----||


 Breakdown
  E E E E E E E E   E E E E E E E E   E E E E E E E E   E E E E E E E E
|-----------------|-----------------|-----------------|------------------|
|-----------------|-----------------|-----------------|------------------|
|-6-6-6-6-6-6-6-6-|-6-6-6-6-6-6-6-6-|-6-6-6-6-6-6-6-6-|-6-6-6-6-6-6-6----|
|-----------------|-----------------|-----------------|---------------0--|


  E E E E E E E E   E E E E E E E E   E E E E E E E E   E E E E E E E E
|-----------------|-----------------|-----------------|------------------|
|-----------------|-----------------|-----------------|------------------|
|-----------------|-----------------|-------------5-5-|-6-6-8-8-6-6-5----|
|-5-5-5-5-5-5-5-5-|-5-5-5-5-5-5-5-5-|-5-5-7-7-8-8-----|---------------8--|


  S S S S S S S S S S S S S S S S   S S S S S S S S S S S S S S S S
|---------------------------------|---------------------------------|
|---------------------------------|---------------------------------|
|-5-x-x-x-5-x-x-x-x-5-x-5-x-x-x-x-|-5-x-x-x-5-x-x-x-x-5-x-5-x-x-x-x-|
|---------------------------------|---------------------------------|


  S S S S S S S S S S S S S S S S   S S S S S S S S S S S S S S S S
|---------------------------------|---------------------------------|
|---------------------------------|---------------------------------|
|-5-x-x-x-5-x-x-x-x-5-x-5-x-x-x-x-|-5-x-x-x-5-x-x-x-x-5-x-5-x-x-x-x-|
|---------------------------------|---------------------------------|


  E E E E E E E E   E E E E E E E E   E E E E E E E E   E E E E E E E E
|-----------------|-----------------|-----------------|------------------|
|-----------------|-----------------|-----------------|------------------|
|-6-6-6-6-6-6-6-6-|-6-6-6-6-6-6-6-6-|-6-6-6-6-6-6-6-6-|-6-6-6-6-6-6-6----|
|-----------------|-----------------|-----------------|---------------0--|


  E E E E E E E E   E E E E E E E E   E E E E E E E E   E E E E E E E E
|-----------------|-----------------|-----------------|------------------|
|-----------------|-----------------|-----------------|------------------|
|-----------------|-----------------|-------------5-5-|-6-6-8-8-6-6-5----|
|-5-5-5-5-5-5-5-5-|-5-5-5-5-5-5-5-5-|-5-5-7-7-8-8-----|---------------8--|


  S S S S S S S S S S S S S S S S   S S S S S S S S S S S S S S S S
|---------------------------------|---------------------------------|
|---------------------------------|---------------------------------|
|-5-x-x-x-5-x-x-x-x-6-x-6-x-x-x-x-|-5-x-x-x-5-x-x-x-8-7-x-5-x-x-x-x-|
|---------------------------------|---------------------------------|


  S S S S S S S S S S S S S S S S   S S S S S S S S S S S S S S S S
|---------------------------------|---------------------------------||
|---------------------------------|---------------------------------||
|-5-x-x-x-5-x-x-x-x-5-x-5-x-x-x-x-|-5-x-x-x-5-x-x-x-x-5-x-5-x-x-x-x-||
|---------------------------------|---------------------------------||


 Pre-Chorus
  E E E E E E E E   E E E E E E E E   E E E E E E E E   E E E E E E E E
|-----------------|-----------------|-----------------|------------------|
|-----------------|-----------------|-----------------|------------------|
|-6-6-6-6-6-6-6-6-|-6-6-6-6-6-6-6-6-|-6-6-6-6-6-6-6-6-|-6-6-6-6-6-6-6----|
|-----------------|-----------------|-----------------|---------------0--|


  E E E E E E E E   E E E E E E E E   E E E E E E E E   E E E E E E E E
|-----------------|-----------------|-----------------|------------------|
|-----------------|-----------------|-----------------|------------------|
|-----------------|-----------------|-------------5-5-|-6-6-8-8-6-6-5----|
|-5-5-5-5-5-5-5-5-|-5-5-5-5-5-5-5-5-|-5-5-7-7-8-8-----|---------------8--|


  E E E E E E E E   E E E E E E E E   E E E E E E E E   E E E E E E E E
|-----------------|-----------------|-----------------|------------------|
|-----------------|-----------------|-----------------|------------------|
|-6-6-6-6-6-6-6-6-|-6-6-6-6-6-6-6-6-|-6-6-6-6-6-6-6-6-|-6-6-6-6-6-6-6----|
|-----------------|-----------------|-----------------|---------------0--|


  E E E E E E E E   E E E E E E E E   E E E E E E E E   E E E E E E E E
|-----------------|-----------------|-----------------|------------------||
|-----------------|-----------------|-----------------|------------------||
|-----------------|-----------------|-------------5-5-|-6-6-8-8-6-6-5----||
|-5-5-5-5-5-5-5-5-|-5-5-5-5-5-5-5-5-|-5-5-7-7-8-8-----|---------------8--||


 Chorus
  E E E E E E E E   E E E E E E E E   E E E E E E E E   E E E E E E E E
|-----------------|-----------------|-----------------|------------------|
|-----------------|-----------------|-----4-----2-----|-0-----2-----2-0--|
|-6-5-----6-5-----|-6-5-----6-5-----|-2-2---2-2---2-2-|---2-2---2-2------|
|-----0-0-----0-0-|-----0-0-----0-0-|-----------------|------------------|


  E E E E E E E E   E  E E E E E E E   E E E E E E E E   E E E E E E E E
|-----------------|------------------|-----------------|------------------|
|-----------------|------------------|-----------------|------------------|
|-----7---9---7---|-9-10-9---7---9---|-----------------|------------------|
|-7-7---7---7---7-|--------7---7---7-|-5-5-5-5-5-5-5-5-|-4-4-4-4-4-4-4-4--|


  E E E E E E E E   E E E E E E E E   E E E E E E E E   E E E E E E E E
|-----------------|-----------------|-----------------|------------------|
|-----------------|-----------------|-----------------|------------------|
|-6-5-----6-5-----|-6-5-----6-5-----|-2-2-2-2-2-2-2-2-|-2-2-2-2-2-2-2-2--|
|-----0-0-----0-0-|-----0-0-----0-0-|-----------------|------------------|


  E E E E E E E E   E E E E E E E E   E E E E E E E E   E E E E E E E E
|-----------------|-----------------|-----------------|------------------|
|-----------------|-----------------|-----------------|------------------|
|-0-0-0-0-0-0-0-0-|-0-0-0-0-0-0-0-0-|-----------------|------------------|
|-----------------|-----------------|-5-5-5-5-5-5-5-5-|-4-4-4-4-4-4-4-4--|


  E E E E E E E E   E E E E E E E E   E E E E E E E E   E E E E E E E E
|-----------------|-----------------|-----------------|------------------|
|-----------------|-----------------|-----------------|------------------|
|-6-5-----6-5-----|-6-5-----6-5-----|-2-2-2-2-2-2-2-2-|-2-2-2-2-2-2-2-2--|
|-----0-0-----0-0-|-----0-0-----0-0-|-----------------|------------------|


  E E E E E E E E   E E E E E E E E   E E E E E E E E   E E E E E E E E
|-----------------|-----------------|-----------------|------------------|
|-----------------|-----------------|-----------------|------------------|
|-0-0-0-0-0-0-0-0-|-0-0-0-0-0-0-0-0-|-----------------|------------------|
|-----------------|-----------------|-5-5-5-5-5-5-5-5-|-4-4-4-4-4-4-4-4--|


  E E E E E E E E   E E E E E E E E   E E E E E E E E   E E E E E E E E
|-----------------|-----------------|-----------------|------------------|
|-----------------|-----------------|-----4-----2-----|-0-----2-----2-0--|
|-6-5-----6-5-----|-6-5-----6-5-----|-2-2---2-2---2-2-|---2-2---2-2------|
|-----0-0-----0-0-|-----0-0-----0-0-|-----------------|------------------|


  E E E E E E E E   E  E E E E E E E   E E E E E E E E
|-----------------|------------------|-----------------|
|-----------------|------------------|-----------------|
|-----7---9---7---|-9-10-9---7---9---|-----------------|
|-7-7---7---7---7-|--------7---7---7-|-5-5-5-5-5-5-5-5-|


                  Q=130
  E E E E E E E E   W          +W
|-----------------|----------|--------||
|-----------------|----------|--------||
|-----------------|----------|--------||
|-4-4-4-4-4-4-4-4-|-0--------|-(0)----||


 I, Robot
 3/4
  H    Q    H    Q    H    Q    H.
|---------|---------|---------|-------|
|---------|---------|---------|-------|
|-8----8--|-8----x--|-8-------|-0-----|
|---------|---------|---------|-------|


  H    Q    H    Q    H    Q    H.
|---------|---------|---------|-------|
|---------|---------|---------|-------|
|-8----8--|-8----8--|-8----8--|-0-----|
|---------|---------|---------|-------|


  H    Q    H    Q    H    Q    H    Q
|---------|---------|---------|----------||
|---------|---------|---------|----------||
|-8----8--|-8----8--|-8----8--|-0----0---||
|---------|---------|---------|----------||


 Outro
  H    Q    H    Q    H    Q    H    Q
|---------|---------|---------|----------|
|---------|---------|---------|----------|
|-8----8--|-8----8--|-8----8--|-0----0---|
|---------|---------|---------|----------|


  H    Q    H    Q    H    Q    H    Q
|---------|---------|---------|----------|
|---------|---------|---------|----------|
|-8----8--|-8----8--|-8----8--|-0----0---|
|---------|---------|---------|----------|


  H    Q    H    Q    H    Q    H    Q
|---------|---------|---------|----------|
|---------|---------|---------|----------|
|-8----8--|-8----8--|-8----8--|-0----0---|
|---------|---------|---------|----------|


  H    Q    H    Q    H    Q    H    Q
|---------|---------|---------|----------|
|---------|---------|---------|----------|
|-8----8--|-8----8--|-8----8--|-0----0---|
|---------|---------|---------|----------|


  H    Q    H    Q    H    Q    H.
|---------|---------|---------|-------|
|---------|---------|---------|-------|
|-8----8--|-8----8--|-8----8--|-0-----|
|---------|---------|---------|-------|


  H.        +H.        +H.        H.
|---------|----------|----------|-------|
|---------|----------|----------|-------|
|-8-------|-(8)------|-(8)------|-0-----|
|---------|----------|----------|-------|


  H.        +H.        +H.        H.
|---------|----------|----------|-------|
|---------|----------|----------|-------|
|-8-------|-(8)------|-(8)------|-0-----|
|---------|----------|----------|-------|


  H.        +H.        +H.        H.        +H.        +H.        +H.
|---------|----------|----------|---------|----------|----------|--------*|
|---------|----------|----------|---------|----------|----------|--------*|
|-8-------|-(8)------|-(8)------|-0-------|-(0)------|-(0)------|-(0)----*|
|---------|----------|----------|---------|----------|----------|--------*|



Duration Legend
---------------
W - whole; H - half; Q - quarter; E - 8th; S - 16th; T - 32nd; X - 64th; a - acciaccatura
+ - note tied to previous; . - note dotted; .. - note double dotted
Uncapitalized letters represent notes that are staccato (1/2 duration)
Irregular groupings are notated above the duration line
Duration letters will always appear directly above the note/fret number it represents the
duration for.  Duration letters with no fret number below them represent rests.  Multi-
bar rests are notated in the form Wxn, where n is the number of bars to rest for.  Low
melody durations appear below the staff

Tablature Legend
----------------
 h   - hammer-on
 p   - pull-off
 b   - bend
 pb  - pre-bend
 r   - bend release (if no number after the r, then release immediately)
 /\  - slide into or out of (from/to "nowhere")
 s   - legato slide
 S   - shift slide
<n> - natural harmonic
[n]  - artificial harmonic
n(n) - tapped harmonic
 ~   - vibrato
 tr  - trill
 T   - tap
 TP  - trem. picking
 PM  - palm muting
\n/  - tremolo bar dip; n = amount to dip
 \n  - tremolo bar down
 n/  - tremolo bar up
/n\  - tremolo bar inverted dip
 =   - hold bend; also acts as connecting device for hammers/pulls
 <> - volume swell (louder/softer)
 x   - on rhythm slash represents muted slash
 o   - on rhythm slash represents single note slash

Misc Legend
-----------
 |  - bar
||  - double bar
||o - repeat start
o|| - repeat end
*|  - double bar (ending)
 :  - bar (freetime)
 $  - Segno
 &  - Coda
Tempo markers - <E/E./Q/Q./H/H.> = BPM(8/16=s8/s16), where s8 = swing 8ths, s16 = swing 16ths

comments
We did not receive enough feedback on this tab! Please rate:
print report bad tab
1 2 3 4 5
1 comment total.
0 reply
Felkara wrote on January 11 2009, 05:29 pm

Wow, this tab is so accurate, it looks exactly like the perfectly accurate tab already tabbed out by Sprinklerthief. How ever did you manage that?

I want to post or [tab]
guest
You may want to rate the tab now too:
select rating
Please do not post tabs as comments. Select "correction" instead!