Oops, an error
Loading. Please wait.

2113 Tab

ver2
ver2

Whole song

More versions @911Tabs.com
2,859 views 3 this week
1 commentread comment
1 2 3 4 5
worth learning
x 5
add to favorites launch autoscroll
font size
0
reset
Autoscroll
+/-
esc
set tempo
stop
Contributor
WARNING: You are trying to view
                                    content from Ultimate-Guitar.com
                                    in an unauthorized application,
                                    which is prohibited.

                                    Please use an official Ultimate
                                    Guitar Tabs application for iPhone,
                                    iPad or Android to access legitimate
                                    chords, guitar, bass, and drum tabs
                                    from Ultimate-Guitar.com database.

                                    Type "ultimate guitar tabs" in Apple
                                    App Store's or Android Market's
                                    search to find the application.
21:13 BY COHEED AND CAMBRIA

 Intro
 
 4/4
  Gtrs I, II
  S S S S +H.        S S S S +H.
|------------------|----------------|
|-------4-(4)------|-------4-(4)----|
|-5-5-5-5-(5)------|-5-5-5-5-(5)----|
|-5-5-5-5-(5)------|-5-5-5-5-(5)----|
|-------6-(6)------|-------6-(6)----|
|------------------|----------------|


  Eb
  S S S S S S S S S S S S S S S S   S S S S S S S S S S S S S S S S
|---------------------------------|---------------------------------|
|---------------------------------|---------------------------------|
|---8-------8-------8-------8-----|---8-------8-------8-------8-----|
|-5---5---5---5---5---5---5---5---|-5---5---5---5---5---5---5---5---|
|---------------------------------|---------------------------------|
|---------------------------------|---------------------------------|


  D
  S S S S S S S S S S S S S S S S   S S S S S S S S S S S S S S S S
|---------------------------------|---------------------------------|
|---------------------------------|---------------------------------|
|---7-------7-------7-------7-----|---7-------7-------7-------7-----|
|-4---4---4---4---4---4---4---4---|-4---4---4---4---4---4---4---4---|
|---------------------------------|---------------------------------|
|---------------------------------|---------------------------------|


  Eb
  ~~~~~~~~~~~~~~~~~~~~~~~~~~~~~~~~~~~~~~~~~~~~~~
  E. S +E  E  S   E. +Q      E. S +E  E  S   E. E. S
|--------------------------|-------------------------|
|--------------------------|-------------------------|
|----8-(8)---[8]-[7]-(7)\--|----8-(8)---[8]-[7]------|
|-5--------5---------------|-5--------5---------5\---|
|--------------------------|--------------------5\-0-|
|--------------------------|-------------------------|


  D
  S S S S S S S S S S S S S S S S   S S S S S S S S S S S S S S S S
|---------------------------------|---------------------------------||
|---------------------------------|---------------------------------||
|---7-------7-------7-------7-----|---7-------7-------7-------7-----||
|-4---4---4---4---4---4---4---4---|-4---4---4---4---4---4---4---4---||
|---------------------------------|---------------------------------||
|---------------------------------|---------------------------------||


 Verse
  Eb
  Gtr V
  S S S S S S S S S S S S S S S S   S S S S S S S S S S S S S S S S
|---------------------------------|---------------------------------|
|---------------------------------|---------------------------------|
|---8---8---8---8---8---8---8---8-|---8---8---8---8---8---8---8---8-|
|-5---5---5---5---5---5---5---5---|-5---5---5---5---5---5---5---5---|
|---------------------------------|---------------------------------|
|---------------------------------|---------------------------------|


  D
  S S S S S S S S S S S S S S S S   S S S S S S S S S S S S S S S S
|---------------------------------|---------------------------------|
|---------------------------------|---------------------------------|
|---7---7---7---7---7---7---7---7-|---7---7---7---7---7---7---7---7-|
|-4---4---4---4---4---4---4---4---|-4---4---4---4---4---4---4---4---|
|---------------------------------|---------------------------------|
|---------------------------------|---------------------------------|


  Eb
  Gtr V
  S    S  S S  S S  S S   S  S S S S S S S
|------------------------------------------|
|------------------------------------------|
|------8----8----8----8------8---8---8---8-|
|-5-------5----5----5-----5----5---5---5---|
|------------------------------------------|
|------------------------------------------|
|
| Gtr IV
| T  T S  S S  E    E    +H
|-8h10p8------13---11---(11)---------------|
|--------11-8------------------------------|
|-0----------------------------------------|
|------------------------------------------|
|------------------------------------------|
|------------------------------------------|


  S    S  S S  S S  S S S    S  S S  S S  S S
|---------------------------------------------|
|---------------------------------------------|
|------8----8----8----8------8----8----8----8-|
|-5-------5----5----5---5-------5----5----5---|
|---------------------------------------------|
|---------------------------------------------|
|
| T  T S  S S  E    E   T  T S  S S  E    E
|-8h10p8------13---11---8h10p8------13---11---|
|--------11-8------------------11-8-----------|
|-0---------------------0---------------------|
|---------------------------------------------|
|---------------------------------------------|
|---------------------------------------------|


  D
    S  S  S  S S  S  S S S  S S S S S S S
|-----------------------------------------|
|-----------------------------------------|
|------7-----7----7----7----7---7---7---7-|
|---4-----4----4-----4---4----4---4---4---|
|-----------------------------------------|
|-----------------------------------------|
|
|  +E     E.      E.     E.     S E   S S
|-(11)------------------------------------|
|--------/4------/4------3------1h3-------|
|-------------------------------------0h2-|
|-----------------------------------------|
|-----------------------------------------|
|-----------------------------------------|


   S  S  S  S S  S  S S  S S S S S S S S
|----------------------------------------|
|----------------------------------------|
|-----7-----7----7----7----7---7---7---7-|
|--4-----4----4-----4----4---4---4---4---|
|----------------------------------------|
|----------------------------------------|
|
|                        ~~
| +E     E.      E.      H
|----------------------------------------|
|-------/4------/4------/3---------------|
|-(2)------------------------------------|
|----------------------------------------|
|----------------------------------------|
|----------------------------------------|


  Eb
  S    S  S S  S S  S S S    S  S S  S S  S S
|---------------------------------------------|
|---------------------------------------------|
|------8----8----8----8------8----8----8----8-|
|-5-------5----5----5---5-------5----5----5---|
|---------------------------------------------|
|---------------------------------------------|
|
| T  T S  S S  E    E   T  T S  S S  E    E
|-8h10p8------13---11---8h10p8------13---11---|
|--------11-8------------------11-8-----------|
|-0---------------------0---------------------|
|---------------------------------------------|
|---------------------------------------------|
|---------------------------------------------|


  S    S  S S  S S  S S S    S  S S  S S  S S
|----------------------------------------------|
|----------------------------------------------|
|------8----8----8----8------8----8----8----8--|
|-5-------5----5----5---5-------5----5----5----|
|----------------------------------------------|
|----------------------------------------------|
|
| T  T S  S S  E    E   T  T S  S S  E    E
|-8h10p8------13---11---8h10p8------13---11----|
|--------11-8------------------11-8------------|
|-0---------------------0----------------------|
|----------------------------------------------|
|----------------------------------------------|
|----------------------------------------------|


  D
    S  S  S  S S  S  S S S  S S S S S S S
|-----------------------------------------|
|-----------------------------------------|
|------7-----7----7----7----7---7---7---7-|
|---4-----4----4-----4---4----4---4---4---|
|-----------------------------------------|
|-----------------------------------------|
|
|  +E     E.      E.     E.     S E   S S
|-----------------------------------------|
|-(16)---/4------/4------3------1h3-------|
|-------------------------------------0h2-|
|-----------------------------------------|
|-----------------------------------------|
|-----------------------------------------|


   S  S S S S S  S  S S S S S S S  S S
|--------------------------------------|
|--------------------------------------|
|-----7---7---7-----7---7---7---7----7-|
|--4----4---4----4----4---4---4----4---|
|--------------------------------------|
|--------------------------------------|
|
| +Q.           +S  S S S S S S E.
|--------------------------------------|
|-------------------3-4---3------------|
|-(2)-----------(2)-----5---2-3-0------|
|--------------------------------------|
|--------------------------------------|
|--------------------------------------|


  Eb
  S    S  S S  S S  S S S    S  S S  S S  S S
|---------------------------------------------|
|---------------------------------------------|
|------8----8----8----8------8----8----8----8-|
|-5-------5----5----5---5-------5----5----5---|
|---------------------------------------------|
|---------------------------------------------|
|
| T  T S  S S  E    E   T  T S  S S  E    E
|-8h10p8----8-13---11---8h10p8----8-13---11---|
|--------11--------------------11-------------|
|-0---------------------0---------------------|
|---------------------------------------------|
|---------------------------------------------|
|---------------------------------------------|


  S    S  S S  S S  S S S    S  S S  S S  S S
|----------------------------------------------|
|----------------------------------------------|
|------8----8----8----8------8----8----8----8--|
|-5-------5----5----5---5-------5----5----5----|
|----------------------------------------------|
|----------------------------------------------|
|
| T  T S  S S  E    E   T  T S  S S  E    E
|-8h10p8----8-13---11---8h10p8----8-13---11----|
|--------11--------------------11--------------|
|-0---------------------0----------------------|
|----------------------------------------------|
|----------------------------------------------|
|----------------------------------------------|


  D
    S  S S S S S S S S S S S S S  S S    S  S S S S S S S S S S S  S S S S
|-------------------------------------|------------------------------------||
|-------------------------------------|------------------------------------||
|------7---7---7---7---7---7---7----7-|-----7---7---7---7---7---7----7---7-||
|---4----4---4---4---4---4---4----4---|--4----4---4---4---4---4----4---4---||
|-------------------------------------|------------------------------------||
|-------------------------------------|------------------------------------||
|
|                                                                  ~~~~~~~~
|  +S  S S S S Q       S S S S E.       +S  S S S S S S S S S S S  E   S S
|-(11)--------------------------------|---------------------------/5---3-2-||
|------1-3---1---------1-3---1--------|-----1-3---1------------------------||
|----------3---2-----------3---2------|-(2)-----3---2-3-0-2---0------------||
|-------------------------------------|---------------------3---2----------||
|-------------------------------------|------------------------------------||
|-------------------------------------|------------------------------------||


 Pre Chorus
  $
  Eb5                 EbmaEb5
  Gtr I
  PM----------------|   PM  PM|      PM   PM------------|   PM  PM  PM
  S S S S S S S S S S S S S S S S    S  S S S S S S S S S S S S S S S
|---------------------------------|-----------------------------------|
|---------------------------------|-----------------------------------|
|---------------------7---8-----8-|-----7-----------------7---8---7---|
|-8-8-8-8-8-8-8-8-8-8-8-8-8-8-8-8-|--8--8-8-8-8-8-8-8-8-8-8-8-8-8-8-8-|
|-6-6-6-6-6-6-6-6-6-6-6-6-6-6-6-6-|--6--6-6-6-6-6-6-6-6-6-6-6-6-6-6-6-|
|---------------------------------|-----------------------------------|
|
| ~~~~~~~~~~~~~~~~~~~~~~~~~~~~~~~~~~~~~~
| W                                 +W
|-3-------------------------------|-(3)-------------------------------|
|---------------------------------|-----------------------------------|
|---------------------------------|-----------------------------------|
|---------------------------------|-----------------------------------|
|---------------------------------|-----------------------------------|
|---------------------------------|-----------------------------------|


  G5
    PM------------------------------------------------------------|
  S S S S S S S S S S S S S S S S   S S S S S S S S S S S S S S S S
|---------------------------------|---------------------------------|
|---------------------------------|---------------------------------|
|-5-------------------------------|---------------------------------|
|-5-------------------------------|---------------------------------|
|-5-5-5-5-5-5-5-5-5-5-5-5-5-5-5-5-|-5-5-5-5-5-5-5-5-5-5-5-5-5-5-5-5-|
|-5-5-5-5-5-5-5-5-5-5-5-5-5-5-5-5-|-5-5-5-5-5-5-5-5-5-5-5-5-5-5-5-5-|
|
| S S S S S S S S S S S S S S S S   S S S S S S S S S S S S S S S S
|-----5-----5-----8-----8-----8---|-----5-----5-----8-----8-----8---|
|-------6-----6-----6-----6-----6-|-------6-----6-----6-----6-----6-|
|-5-5-----5-----5-----5-----5-----|-5-5-----5-----5-----5-----5-----|
|---------------------------------|---------------------------------|
|---------------------------------|---------------------------------|
|---------------------------------|---------------------------------|


  Eb5                     EbmaEb5
  PM--------------------|   PM  PM|     PM    PM------------|   PM  PM  PM
  S   S S S S S S S S   S S S S S S S   S   S S S S S S S S S S S S S S S
|-------------------------------------|-----------------------------------|
|-------------------------------------|-----------------------------------|
|-------------------------7---8-----8-|-----7-----------------7---8---7---|
|-8---8-8-8-8-8-8-8-8---8-8-8-8-8-8-8-|-8---8-8-8-8-8-8-8-8-8-8-8-8-8-8-8-|
|-6---6-6-6-6-6-6-6-6---6-6-6-6-6-6-6-|-6---6-6-6-6-6-6-6-6-6-6-6-6-6-6-6-|
|-------------------------------------|-----------------------------------|
|
| T T S S S Q       T T S S S Q         T T S S S Q       S S S S E   E
|-----------3-----------------3-------|-----------3-----------------------|
|-1h3p1-------------1h3p1-------------|-1h3p1-------------3-1-------------|
|-------3-0---------------3-0---------|-------3-0-------------3-2-0---2---|
|-------------------------------------|-----------------------------------|
|-------------------------------------|-----------------------------------|
|-------------------------------------|-----------------------------------|


                                                           To Coda
  G5
    PM------------------------------------------------------------|
  S S S S S S S S S S S S S S S S   S S S S S S S S S S S S S S S S
|---------------------------------|---------------------------------||
|---------------------------------|---------------------------------||
|-5-------------------------------|---------------------------------||
|-5-------------------------------|---------------------------------||
|-5-5-5-5-5-5-5-5-5-5-5-5-5-5-5-5-|-5-5-5-5-5-5-5-5-5-5-5-5-5-5-5-5-||
|-5-5-5-5-5-5-5-5-5-5-5-5-5-5-5-5-|-5-5-5-5-5-5-5-5-5-5-5-5-5-5-5-5-||
|
| S S S S S S S S S S S S S S S S   S S S S S S S S S S S S S S S S
|-----5-----5-----8-----8-----8---|-----5-----5-----8-----8-----8---||
|-------6-----6-----6-----6-----6-|-------6-----6-----6-----6-----6-||
|-5-5-----5-----5-----5-----5-----|-5-5-----5-----5-----5-----5-----||
|---------------------------------|---------------------------------||
|---------------------------------|---------------------------------||
|---------------------------------|---------------------------------||


 Interlude
  Eb
  Gtrs I, II
  S S S S S S S S S S S S S S S S   S S S S S S S S S S S S S S S S
|---------------------------------|---------------------------------|
|---------------------------------|---------------------------------|
|---8-------8-------8-------8-----|---8-------8-------8-------8-----|
|-5---5---5---5---5---5---5---5---|-5---5---5---5---5---5---5---5---|
|---------------------------------|---------------------------------|
|---------------------------------|---------------------------------|


  D
  Gtrs I, II, V
  S S S S S S S S S S S S S S S S   S S S S S S S S S S S S S S S S
|---------------------------------|---------------------------------||
|---------------------------------|---------------------------------||
|---7-------7-------7-------7-----|---7-------7-------7-------7-----||
|-4---4---4---4---4---4---4---4---|-4---4---4---4---4---4---4---4---||
|---------------------------------|---------------------------------||
|---------------------------------|---------------------------------||


 Verse
  Eb
  Gtr V
  S    S  S S  S S  S S S    S  S S  S S  S S
|---------------------------------------------|
|---------------------------------------------|
|------8----8----8----8------8----8----8----8-|
|-5-------5----5----5---5-------5----5----5---|
|---------------------------------------------|
|---------------------------------------------|
|
| Gtr IV
| T  T S  S S  E    E   T  T S  S S  E    E
|-8h10p8------13---11---8h10p8------13---11---|
|--------11-8------------------11-8-----------|
|-0---------------------0---------------------|
|---------------------------------------------|
|---------------------------------------------|
|---------------------------------------------|


  S    S  S S  S S  S S S    S  S S  S S  S S
|----------------------------------------------|
|----------------------------------------------|
|------8----8----8----8------8----8----8----8--|
|-5-------5----5----5---5-------5----5----5----|
|----------------------------------------------|
|----------------------------------------------|
|
| T  T S  S S  E    E   T  T S  S S  E    E
|-8h10p8------13---11---8h10p8------13---11----|
|--------11-8------------------11-8------------|
|-0---------------------0----------------------|
|----------------------------------------------|
|----------------------------------------------|
|----------------------------------------------|


  D
    S  S  S  S S  S  S S S  S S S S S S S
|-----------------------------------------|
|-----------------------------------------|
|------7-----7----7----7----7---7---7---7-|
|---4-----4----4-----4---4----4---4---4---|
|-----------------------------------------|
|-----------------------------------------|
|
|  +E     E.      E.     E.     S E   S S
|-(11)------------------------------------|
|--------/4------/4------3------1h3-------|
|-------------------------------------0h2-|
|-----------------------------------------|
|-----------------------------------------|
|-----------------------------------------|


   S  S  S  S S  S  S S  S S   S S S S S S
|------------------------------------------|
|------------------------------------------|
|-----7-----7----7----7----7-----7---7---7-|
|--4-----4----4-----4----4-----4---4---4---|
|------------------------------------------|
|------------------------------------------|
|
|                        ~~~
| +E     E.      E.      S Q..
|------------------------------------------|
|-------/4------/4------/4s3---------------|
|-(2)--------------------------------------|
|------------------------------------------|
|------------------------------------------|
|------------------------------------------|


  Eb
  S    S  S S  S S  S S S    S  S S  S S  S S
|---------------------------------------------|
|---------------------------------------------|
|------8----8----8----8------8----8----8----8-|
|-5-------5----5----5---5-------5----5----5---|
|---------------------------------------------|
|---------------------------------------------|
|
| T  T S  S S  E    E   T  T S  S S  E    E
|-8h10p8------13---11---8h10p8------13---11---|
|--------11-8------------------11-8-----------|
|-0---------------------0---------------------|
|---------------------------------------------|
|---------------------------------------------|
|---------------------------------------------|


  S    S  S S  S S  S S S    S  S S  S S  S S
|----------------------------------------------|
|----------------------------------------------|
|------8----8----8----8------8----8----8----8--|
|-5-------5----5----5---5-------5----5----5----|
|----------------------------------------------|
|----------------------------------------------|
|
| T  T S  S S  E    E   T  T S  S S  E    E
|-8h10p8------13---11---8h10p8------13---11----|
|--------11-8------------------11-8------------|
|-0---------------------0----------------------|
|----------------------------------------------|
|----------------------------------------------|
|----------------------------------------------|


  D
    S  S  S  S S  S  S S S  S S S S S S S
|-----------------------------------------|
|-----------------------------------------|
|------7-----7----7----7----7---7---7---7-|
|---4-----4----4-----4---4----4---4---4---|
|-----------------------------------------|
|-----------------------------------------|
|
|  +E     E.      E.     E.     S E   S S
|-(11)------------------------------------|
|--------/4------/4------3------1h3-------|
|-------------------------------------0h2-|
|-----------------------------------------|
|-----------------------------------------|
|-----------------------------------------|


                       D.S. al Coda
   S  S S S S S S S S S S S  S S S S
|------------------------------------||
|------------------------------------||
|-----7---7---7---7---7---7----7---7-||
|--4----4---4---4---4---4----4---4---||
|------------------------------------||
|------------------------------------||
|
|                            ~~~~~~~~
| +S  S S S S S S S S S S S  E   S S
|---------------------------/5---3-2-||
|-----1-3---1------------------------||
|-(2)-----3---2-3-0-2---0------------||
|---------------------3---2----------||
|------------------------------------||
|------------------------------------||


   Chorus
    &
    D5                                        Bm
    Gtr I
     S  S S S  S  S S S  S  S S S  S  S S S   S S S S S  S S S S S S S S S S S
||------------------------------------------|----------------------------------|
||o-----------------------------------------|-3-3-3-3-3--3-3-3-3-3-3-3-3-3-3-3-|
||------------------------------------------|-4-4-4-4-4--4-4-4-4-4-4-4-4-4-4-4-|
||------------------------------------------|-4-4-4-4-4--4-4-4-4-4-4-4-4-4-4-4-|
||o-12-12-----12-12-----12-12-----12-12-----|-2-2-2-2-2--2-2-2-2-2-2-2-2-2-2-2-|
||--12-12-0-0-12-12-0-0-12-12-0-0-12-12-0-0-|----------------------------------|
|
|   Gtr II
|    S  S S S  S  S S S  S  S S S  S  S S S   S S S S H.
||------------------------------------------|----------------------------------|
||o-----------------------------------------|-------8--------------------------|
||--12S11-----11S12-----12S11------9S11-----|-7-7-7-7-7------------------------|
||------------------------------------------|-x-x-x-x-x------------------------|
||o-10S=9-x-x--9S10-x-x-10S=9-x-x--7S=9-x-x-|-5-5-5-5-5------------------------|
||------------------------------------------|----------------------------------|


  A5                                    G5              F#5
                                                          PM|   PM|   PM
   S  S S S S  S S S  S S S S S S S S   S S S S S S S S S S S S S S S S  3x
|-------------------------------------|----------------------------------||
|-------------------------------------|---------------------------------o||
|--2--2-2-2-2--2-2-2--2-2-2-2-2-2-2-2-|----------------------------------||
|--2--2-2-2-2--2-2-2--2-2-2-2-2-2-2-2-|----------------------------------||
|--0--0-0-0-0--0-0-0--0-0-0-0-0-0-0-0-|-5-5-5-5-5-5-5-5-4-----4-----4---o||
|-------------------------------------|-5-5-5-5-5-5-5-5-4-4-4-4-4-4-4-4--||
|
|  S  S S S S  S S S  S S S S S S S S   H               H                3x
|-------------------------------------|-3---------------5----------------||
|-------------------------------------|-3---------------3---------------o||
|-12S11-----9S11-----11S9-----9S7-----|-4---------------2----------------||
|-------------------------------------|-5---------------4----------------||
|-10S=9-x-x-7S=9-x-x--9S7-x-x-7S5-x-x-|---------------------------------o||
|-------------------------------------|----------------------------------||


 Guitar Break
  D5         N.C.
                       ~~~~~~         ~~~
  W           S  S S S E  E  S S S S  Q
|----------|------------------------------|
|----------|------------------------------|
|----------|---------------------0-6------|
|-0--------|-------------------------[7]--|
|-0--------|--7--9-5-5-5-[5]-0-7----------|
|-0--------|------------------------------|
|
| W          +W
|----------|------------------------------|
|----------|------------------------------|
|----------|------------------------------|
|-0--------|-(0)--------------------------|
|-0--------|-(0)--------------------------|
|-0--------|-(0)--------------------------|


   S   S  S S E E  S  S S  S  S S  S   S
|-----------------------------------------|
|-----------------------------------------|
|-----------------------------------------|
|-----11-12-------12-11-9-------9---------|
|--9--------0-9-9---------12-10---12-[10]-|
|-------------0-0-------------------------|
|
| +W
|-----------------------------------------|
|-----------------------------------------|
|-----------------------------------------|
|-(0)-------------------------------------|
|-(0)-------------------------------------|
|-(0)-------------------------------------|


    N.C.
            ~~~~~~           ~~~
    S S S S E  E  S S S  S   Q     S  S  S S E E  S  S S  S  S S  S   S   3x
||-------------------------------|----------------------------------------||
||o------------------------------|---------------------------------------o||
||--------------------0--6-------|----------------------------------------||
||--------------------------[7]--|---11-12-------12-11-9-------9----------||
||o-7-9-5-5-5-[5]-0-7------------|-9-------0-9-9---------12-10---12-[10]-o||
||-------------------------------|-----------0-0--------------------------||
|
|           ~~~~~~           ~~~
|   S S S S E  E  S S S  S   Q     S  S  S S E E  S  S S  S  S S  S   S   3x
||-------------------------------|----------------------------------------||
||o------------------------------|---------------------------------------o||
||--------------------0-[6]------|----------------------------------------||
||--------------------------[7]--|---11-12-------12-11-9-------9----------||
||o-7-9-5-5-5-[5]-0-7------------|-9-------0-5-5---------12-10---12--10--o||
||-------------------------------|-----------0-0--------------------------||


 Interlude
  N.C.
  Gtr I
  S S S S S S S S S S S S E T T S   S S S S S S S S S S S S E T T S
|---------------------------------|---------------------------------|
|---------------------------------|---------------------------------|
|---------------------------------|---------------------------------|
|-3-2---3-2---3-2---3-2-3-5-3-2---|-3-2---3-2---3-2---3-2-3-5-3-2---|
|-------------------------------5-|-------------------------------5-|
|---------------------------------|---------------------------------|
|
| Gtr II
| S S S S S S S S S S S S E T T S   S S S S S S S S S S S S E T T S
|-5-4---5-4---5-4---5-4-5-7-5-4-2-|-5-4---5-4---5-4---5-4-5-7-5-4-2-|
|---------------------------------|---------------------------------|
|---------------------------------|---------------------------------|
|---------------------------------|---------------------------------|
|---------------------------------|---------------------------------|
|---------------------------------|---------------------------------|


  N.C.
   S S  S S  S S  S S  S S  S S  S S  S S
|-----------------------------------------|
|-----------------------------------------|
|------------4-4--------------------------|
|-------7-7-------5-5--7-7----------------|
|--5-5----------------------5-5--3-3--0-0-|
|-----------------------------------------|
|
|  E    E    E    E    E    E    E    E
|------10---13----------------------------|
|-13-------------13---10-------------10---|
|--------------------------10---12--------|
|-----------------------------------------|
|-----------------------------------------|
|-----------------------------------------|


   S S  S S  S S  S S  S S  S S  S S  S S
|-----------------------------------------|
|-----------------------------------------|
|------------4-4--------------------------|
|-------7-7-------5-5--7-7----------------|
|--5-5----------------------5-5--3-3--0-0-|
|-----------------------------------------|
|
|  E    E    E    E    E    E    E    E
|------10---13----------------------------|
|-13-------------13---10-------------10---|
|--------------------------10---12--------|
|-----------------------------------------|
|-----------------------------------------|
|-----------------------------------------|


  S S S S S S S S S S S S E T T S   S S S S S S S S S S S S E T T S
|---------------------------------|---------------------------------|
|---------------------------------|---------------------------------|
|---------------------------------|---------------------------------|
|-3-2---3-2---3-2---3-2-3-5-3-2---|-3-2---3-2---3-2---3-2-3-5-3-2---|
|-------------------------------5-|-------------------------------5-|
|---------------------------------|---------------------------------|
|
| S S S S S S S S S S S S E T T S   S S S S S S S S S S S S E T T S
|-5-4---5-4---5-4---5-4-5-7-5-4-2-|-5-4---5-4---5-4---5-4-5-7-5-4-2-|
|---------------------------------|---------------------------------|
|---------------------------------|---------------------------------|
|---------------------------------|---------------------------------|
|---------------------------------|---------------------------------|
|---------------------------------|---------------------------------|


  N.C.
   S S  S S  S S  S S  S S  S S  S S  S S
|-----------------------------------------|
|-----------------------------------------|
|------------4-4--------------------------|
|-------7-7-------5-5--7-7----------------|
|--5-5----------------------5-5--3-3--0-0-|
|-----------------------------------------|
|
|  E    E    E    E    E    E    E    E
|------10---13--------10------------------|
|-13-------------13-------------10---13---|
|--------------------------12-------------|
|-----------------------------------------|
|-----------------------------------------|
|-----------------------------------------|


   S S  S S  S S  S S  S S  S S  S S  S S
|-----------------------------------------||
|-----------------------------------------||
|------------4-4--------------------------||
|-------7-7-------5-5--7-7----------------||
|--5-5----------------------5-5--3-3--0-0-||
|-----------------------------------------||
|
|  E    E    E    E    E    E    E    E
|------10---13--------10------------------||
|-13-------------13-------------10---13---||
|--------------------------12-------------||
|-----------------------------------------||
|-----------------------------------------||
|-----------------------------------------||


   Breakdown
    D                     Dsus2               Csus2G/B
    Gtr VI
     W                     E  E E E E E E E   H    H
||---0------------------|-----0-----0-------|-----------|
||o--3------------------|-------3-----3-----|-1----3----|
||---2------------------|--2------2-----2---|-0----0----|
||---0------------------|--0--------------0-|-----------|
||o--0------------------|-------------------|-3----2----|
||---0------------------|-------------------|-----------|
|
|   Gtr II
|    W                    +W                  H    H
||----------------------|-------------------|-----------|
||o---------------------|-------------------|-----------|
||----------------------|-------------------|-----------|
||---0------------------|-(0)---------------|-----------|
||o--0------------------|-(0)---------------|-3----2----|
||---0------------------|-(0)---------------|-----------|
|
|   Gtr III
|    H    +E. S S S S S    W                  H    H
||--^2----(2)-2-2-2-2-2-|--2----------------|-----------|
||o-^3----(3)-3-3-3-3-3-|--3----------------|-3----3----|
||--^2----(2)-2-2-2-2-2-|--2----------------|-0----0----|
||--^0----(0)-0-0-0-0-0-|--0----------------|-----------|
||o---------------------|-------------------|-3----2----|
||----------------------|-------------------|-----------|


  1.
  D5                      F5G5C5   D5                      F5G5C5
  Gtr I
    S  S  E S S   S  S  E E E  E     S  S  E S S   S  S  E E E  E
|--------------------------------|---------------------------------||
|--------------------------------|--------------------------------o||
|--------------------------------|---------------------------------||
|--------------------------------|---------------------------------||
|--12-12-12-x-x--12-12-12-3-5-10-|--12-12-12-x-x--12-12-12-3-5-10-o||
|--12-12-12-x-x--12-12-12-3-5-10-|--12-12-12-x-x--12-12-12-3-5-10--||
|
|   S  S  Q       E     E E E  E     S  S  Q       E     E E E  E
|--------------------------------|---------------------------------||
|-----13---------------10---8----|-----13---------------10---8----o||
|-/14----14-----/10-------7----7-|-/14----14-----/10-------7----7--||
|--------------------------------|---------------------------------||
|--------------------------------|--------------------------------o||
|--------------------------------|---------------------------------||
|
|   S  S  E S S   S  S  E E E  E     S  S  E S S   S  S  E E E  E
|--------------------------------|---------------------------------||
|---3--3--3-------3--3--3--------|---3--3--3-------3--3--3--------o||
|---2--2--2-------2--2--2--------|---2--2--2-------2--2--2---------||
|---0--0--0-x-x---0--0--0--------|---0--0--0-x-x---0--0--0---------||
|---0--0--0-x-x---0--0--0-3-5-10-|---0--0--0-x-x---0--0--0-3-5-10-o||
|---0--0--0-x-x---0--0--0-3-5-10-|---0--0--0-x-x---0--0--0-3-5-10--||


    2.
    D5                      F5G5C5   D5                      F5G5C5
    Gtr I
      S  S  E S S   S  S  E E E  E     S  S  E S S   S  S  E E E  E
||---------------------------------|--------------------------------|
||o--------------------------------|--------------------------------|
||---------------------------------|--------------------------------|
||---------------------------------|--------------------------------|
||o--12-12-12-x-x--12-12-12-3-5-10-|--12-12-12-x-x--12-12-12-3-5-10-|
||---12-12-12-x-x--12-12-12-3-5-10-|--12-12-12-x-x--12-12-12-3-5-10-|
|
|   Gtr II
|     S  S  Q       E     E E E  E     S  S  Q       E     E E E  E
||---------------------------------|--------------------------------|
||o-----13---------------10---8----|-----13---------------10---8----|
||--/14----14-----/10-------7----7-|-/14----14-----/10-------7----7-|
||---------------------------------|--------------------------------|
||o--------------------------------|--------------------------------|
||---------------------------------|--------------------------------|
|
|   Gtr III
|     S  S  E S S   S  S  E E E  E     S  S  E S S   S  S  E E E  E
||---------------------------------|--------------------------------|
||o---3--3--3-------3--3--3--------|---3--3--3-------3--3--3--------|
||----2--2--2-------2--2--2--------|---2--2--2-------2--2--2--------|
||----0--0--0-x-x---0--0--0--------|---0--0--0-x-x---0--0--0--------|
||o---0--0--0-x-x---0--0--0-3-5-10-|---0--0--0-x-x---0--0--0-3-5-10-|
||----0--0--0-x-x---0--0--0-3-5-10-|---0--0--0-x-x---0--0--0-3-5-10-|


  1.
  Eb5                     F5G5D5  Eb5                     F5G5D5
    S  S  E  S S  S  S  E E E E     S  S  E  S S  S  S  E E E E
|-------------------------------|--------------------------------||
|-------------------------------|-------------------------------o||
|-------------------------------|--------------------------------||
|-------------------------------|--------------------------------||
|--13-13-13--x-x-13-13-13-3-5-0-|--13-13-13--x-x-13-13-13-3-5-0-o||
|--13-13-13--x-x-13-13-13-3-5-0-|--13-13-13--x-x-13-13-13-3-5-0--||
|
|   Q        E    Q       E Q       Q        E    Q       E Q
|-------------------------------|--------------------------------||
|-/11-------10------------8-----|-/11-------10------------8-----o||
|----------------10---------7---|----------------10---------7----||
|-------------------------------|--------------------------------||
|-------------------------------|-------------------------------o||
|-------------------------------|--------------------------------||
|
|   S  S  E  S S  S  S  E E E E     S  S  E  S S  S  S  E E E E
|-------------------------------|--------------------------------||
|---4--4--4-------4--4--4-------|---4--4--4-------4--4--4-------o||
|---3--3--3-------3--3--3-------|---3--3--3-------3--3--3--------||
|---1--1--1--x-x--1--1--1-------|---1--1--1--x-x--1--1--1--------||
|---1--1--1--x-x--1--1--1-3-5-0-|---1--1--1--x-x--1--1--1-3-5-0-o||
|---1--1--1--x-x--1--1--1-3-5-0-|---1--1--1--x-x--1--1--1-3-5-0--||


  2.
  Eb5                     F5 G5 D5  Eb5                     F5
    S  S  E  S S  S  S  E  E  E E     S  S  E  S S  S  S  E  S S  S S E
|---------------------------------|-------------------------------------||
|---------------------------------|-------------------------------------||
|---------------------------------|-------------------------------------||
|---------------------------------|-------------------------------------||
|--13-13-13--x-x-13-13-13--3--5-0-|--13-13-13--x-x-13-13-13--3-3--3---3-||
|--13-13-13--x-x-13-13-13--3--5-0-|--13-13-13--x-x-13-13-13--3-3--3---3-||
|
|                                                                 ~~
|   Q        E    Q        E  Q       Q        E    Q        E    Q
|---------------------------------|------------------------------10-----||
|-/11-------10--------------------|-/11-------10------------------------||
|----------------10-------12------|----------------10-------12----------||
|----------------------------12---|-------------------------------------||
|---------------------------------|-------------------------------------||
|---------------------------------|-------------------------------------||
|
|   S  S  E  S S  S  S  E  E  E E     S  S  E  S S  S  S  E  S S  S S E
|---------------------------------|-------------------------------------||
|---4--4--4-------4--4--4---------|---4--4--4-------4--4--4-------------||
|---3--3--3-------3--3--3---------|---3--3--3-------3--3--3-------------||
|---1--1--1--x-x--1--1--1---------|---1--1--1--x-x--1--1--1-------------||
|---1--1--1--x-x--1--1--1--3--5-0-|---1--1--1--x-x--1--1--1--3-3--3---3-||
|---1--1--1--x-x--1--1--1--3--5-0-|---1--1--1--x-x--1--1--1--3-3--3---3-||


 Guitar Solo
  N.C.
  Gtrs I, III
                     |-3-| |-3-| |-3-|
    S  S S S S S S S S S S S S S S S S E
|----------------------------------------|
|----------------------------------------|
|----------------------------------------|
|--------------------0h2h4-0h4h5h7p5p4s2-|
|----------------------------------------|
|---0h=2h4-0h5h7h9-0---------------------|
|
|   ~~~~
|  +W
|-(10)-----------------------------------|
|----------------------------------------|
|----------------------------------------|
|----------------------------------------|
|----------------------------------------|
|----------------------------------------|


  N.C.
  Gtr I
  |-3-| |-3-| |-3-| |3| |-3--|  |-3--| |-3--|
  S S S S S S S S S S E S S  S  S S  S S S  S E
|------------------------------10---10p9p7-------|
|-----------------------7h8h10-------------10p8--|
|------------------------------------------------|
|-7s5-5-5s4-4-4s2-2-2s0--------------------------|
|------------------------------------------------|
|------------------------------------------------|
|
| |-3-| |-3-| |-3-| |3| |-3--|  |-3--| |-3--|
| S S S S S S S S S S E S S  S  S S  S S S  S E
|------------------------------10---10p9p7-------|
|-----------------------7h8h10-------------10p8--|
|------------------------------------------------|
|-7s5-5-5s4-4-4s2-2-2s0--------------------------|
|------------------------------------------------|
|------------------------------------------------|


  N.C.
  Gtrs I, II
  |-3--|  |--3--| |--3--|    |-3--|  |-3--|  |-3--|  |-3--|
  S  S S  S  S  S S  S  S E  S  S S  S  S S  S  S S  S  S S
|------9h10h12p10p9-----------------------------------------|
|---10--------------12p10-----------------------------------|
|-9-----------------------9-12p11p9---------12p11p9---------|
|-----------------------------------12p10p9---------12p10p9-|
|-----------------------------------------------------------|
|-----------------------------------------------------------|


 2/4
   |---3----|  |-3--|
   E  E  S  S  S  S S  E
|-------------------------||
|-------------------------||
|-------------------------||
|-12-12-12-12-12-10-9-----||
|---------------------12--||
|-------------------------||


   Interlude
    Slower Q.=65
    N.C.
   9/8
                      ~~~~~~~
    S S S e S E S E.  E.  E.
||---------------------------|
||o--------------------------|
||---------------------------|
||--0-5-7-8-8-7-5-7----------|
||o------------------[8]-[5]-|
||---------------------------|


  N.C.
 15/16
                 ~~~     ~~~
  S S S e S E S  S  +E   E.
|----------------------------||
|---------------------------o||
|-----------------------[7]--||
|-0-5-7-8-8-7-5-[7]-(7)------||
|---------------------------o||
|----------------------------||


    D5G5A5Bb5 A5G5A5 F5 D5
   9/8
    S S S E S E S E. E. E.
||-------------------------|
||o------------------------|
||-------------------------|
||-------------------------|
||o-0-5-7-8-8-7-5-7--3--0--|
||--0-5-7-8-8-7-5-7--3--0--|


  D5G5A5Bb5 A5G5A5    D5
 15/16
  S S S E S E S S +E   E.
|--------------------------||
|-------------------------o||
|--------------------------||
|--------------------------||
|-0-5-7-8-8-7-5-7-(7)-12--o||
|-0-5-7-8-8-7-5-7-(7)-12---||


 Time Consumer
  Time Consumer Beat Q=80
  D5                     Dm11
 6/4                    4/4
  Gtr I
  W         +Q..     S    S  S  E  E  S  S  S  S  S S  E  S  S
|----------------------|---------------------------------------|
|----------------------|----------10------------------10-------|
|----------------------|---------------------------------------|
|-0---------(0)----/12-|-10-12--0----12-10----12-10-0----12-10-|
|-0---------(0)--------|---------------------------------------|
|-0---------(0)--------|---------------------------------------|
|
| Gtr II                 Gtr IV
| W.                      S  E.    E  S  E.       E    E  S  S
|----------------------|-----------0-------------------0-------|
|----------------------|----(8)----8-----8-------------8-----8-|
|----------------------|----10-----7-10----------10----7-10----|
|-0--------------------|---------------------------------------|
|-0--------------------|---------------------------------------|
|-0--------------------|---------------------------------------|


  Dm11
   S   S  S S  E  S  S  S  S  S S  E  S S
|-----------------------------------------|
|-------------10------------------10------|
|-----------------------------------------|
|-12--10-12-0----12-10----12-10-0----12-0-|
|-----------------------------------------|
|-----------------------------------------|
|
| +E      E    E  S  E.       E    E  E
|--------------0-------------------0------|
|-(8)----------8-----8-------------8------|
|--------10----7-10----------10----7--7---|
|-----------------------------------------|
|-----------------------------------------|
|-----------------------------------------|


  Bb
   S  S  S  S  S  S  S  S  S  S  S  S  S  S  S S
|------------------------------------------------|
|----10-------10-------11-------11-------11------|
|-------10-------10-------10-------10-------10---|
|--8--------8--------8--------8--------8-------0-|
|------------------------------------------------|
|------------------------------------------------|
|
|  S  S  S  S  S  S  S  S  S  S  S  S  S  S  S S
|-13-------13-------13-------13-------13---------|
|----15-------15-------15-------15-------15------|
|-------15-------15-------15-------15-------15---|
|------------------------------------------------|
|------------------------------------------------|
|------------------------------------------------|


  Dm7/G
   S  S  S  S  S  S  S  S  S  S  S  S  S  S  E
|------------------------------------------------|
|----10-------10-------10-------10-------10------|
|-------10-------10-------10-------10-------10---|
|------------------------------------------------|
|-10-------10-------10-------10-------10---------|
|------------------------------------------------|
|
|  S  S  S  S  S  S  S  S  S  S  S  S  S  S  S S
|-17-------17-------17-------17-------17---------|
|----15-------15-------15-------15-------15------|
|-------17-------17-------17-------17-------17---|
|------------------------------------------------|
|------------------------------------------------|
|------------------------------------------------|


  Bbsus2
   S  S  S  S  S  S  S  S  S  S  S  S  S  S  S  S
|--------------8-----------------------8----------|
|----11----------11----------11----------11-------|
|-------10----------10p=0-------10----------10p=0-|
|-/8--------8-------------/8--------8-------------|
|-------------------------------------------------|
|-------------------------------------------------|
|
|  S  S  S  S  S  S  S  S  S  S  S  S  S  S  S  S
|----20-------20-------20-------20-------20-------|
|-------17-------17-------17-------17-------17----|
|-19-------19-------19-------19-------19-------19-|
|-------------------------------------------------|
|-------------------------------------------------|
|-------------------------------------------------|


  Bbsus2
   S  S  S  S  S  S  S  S  S  S  S  S  S  S  S  S
|--------------8-----------------------8----------|
|----11----------11----------11----------11-------|
|-------10----------10p=0-------10----------10----|
|-/8--------8-------------/8--------8-----------0-|
|-------------------------------------------------|
|-------------------------------------------------|
|
|  S  S  S  S  S  S  S  S  S  S  S  S  S  S  S  S
|----20-------20-------20-------20-------20-------|
|-------17-------17-------17-------17-------17----|
|-17-------17-------17-------17-------17-------17-|
|-------------------------------------------------|
|-------------------------------------------------|
|-------------------------------------------------|


  Bbsus2                Dm7/G                      D5
    S  S  S  S S  S  S  S   S S  S  S  S S  S  S   W
|------------------------------------------------|------||
|-----10---------10-----------8----------8-------|------||
|--------10---------10p=0-------10---------10----|------||
|---8--------8-8-----------10------10-10------10-|-0----||
|------------------------------------------------|-0----||
|------------------------------------------------|-0----||
|
|   S  S  S  S S  S  E      S S  S  S  S S  S  S   W
|------0-------0--------------0--------0---------|------||
|---------8-------8--------------8-------8-------|------||
|-/10-------10------10\---/10------10------10--0-|------||
|------------------------------------------------|-0----||
|------------------------------------------------|-0----||
|------------------------------------------------|-0----||


   Pre Chorus
    A Tempo Q=78
    Eb5                 EbmaEb
    Gtrs I, II
    PM----------------|   PM  PM|     PM  PM------------|   PM  PM
    S S S S S S S S S S S S S S S S   S S S S S S S S S S S S S S S S
||----------------------------------|---------------------------------|
||o---------------------------------|---------------------------------|
||----------------------7---8-----8-|---7-----------------7---8---7---|
||--8-8-8-8-8-8-8-8-8-8-8-8-8-8-8-8-|-8-8-8-8-8-8-8-8-8-8-8-8-8-8-8-8-|
||o-6-6-6-6-6-6-6-6-6-6-6-6-6-6-6-6-|-6-6-6-6-6-6-6-6-6-6-6-6-6-6-6-6-|
||----------------------------------|---------------------------------|


  G5                                N.C.
    PM--------------------------|
  S S S S S S S S S S S S S S S S   S S S S S S S S S S S S S S S S
|---------------------------------|---------------------------------|
|---------------------------------|---------------------------------|
|-5-------------------------------|---------------------------------|
|-5-------------------------------|---------------------------------|
|-5-5-5-5-5-5-5-5-5-5-5-5-5-5-5-5-|-------------5-5-6-6-8-8-6-6-5---|
|-5-5-5-5-5-5-5-5-5-5-5-5-5-5-5-5-|-5-5-7-7-8-8-------------------8-|


  1.ster Q=132
  N.C.
  S S S S S S S S S S S S S S S S   S S S S S S S S S S S S S S S S
|---------------------------------|---------------------------------|
|---------------------------------|---------------------------------|
|---------------------------------|---------------------------------|
|---------------------------------|---------------------------------|
|-5-x-x-x-5-x-x-x-x-5-x-5-x-x-x-x-|-5-x-x-x-5-x-x-x-x-5-x-5-x-x-x-x-|
|---------------------------------|---------------------------------|


  N.C.
  S S S S S S S S S S S S S S S S   S S S S S S S S S S S S S S S S
|---------------------------------|----------------------------------||
|---------------------------------|---------------------------------o||
|---------------------------------|----------------------------------||
|---------------------------------|----------------------------------||
|-5-x-x-x-5-x-x-x-x-5-x-5-x-x-x-x-|-5-x-x-x-5-x-x-x-x-5-x-5-x-x-x-x-o||
|---------------------------------|----------------------------------||


  2.
  N.C.
  S S S S S S S S S S S S S S S S   S S S S S S S S S S S S S S S S
|---------------------------------|---------------------------------|
|---------------------------------|---------------------------------|
|---------------------------------|---------------------------------|
|---------------------------------|---------------------------------|
|-5-x-x-x-5-x-x-x-x-6-x-6-x-x-x-x-|-5-x-x-x-5-x-x-x-8-6-x-5-x-x-x-x-|
|---------------------------------|---------------------------------|


  N.C.
  S S S S S S S S S S S S S S S S   S S S S S S S S S S S S S S S S
|---------------------------------|---------------------------------|
|---------------------------------|---------------------------------|
|---------------------------------|---------------------------------|
|---------------------------------|---------------------------------|
|-5-x-x-x-5-x-x-x-x-6-x-6-x-x-x-x-|-5-x-x-x-5-x-x-x-x-5-x-5-x-x-x-x-|
|---------------------------------|---------------------------------|


  A Tempo Q=78
  Eb                  Ebmaj7
  Gtr I
  PM----------------|   PM  PM|     PM  PM------------|   PM  PM
  S S S S S S S S S S S S S S S S   S S S S S S S S S S S S S S S S
|---------------------------------|---------------------------------|
|---------------------------------|---------------------------------|
|---------------------7---8-----8-|---7-----------------7---8---7---|
|-8-8-8-8-8-8-8-8-8-8-8-8-8-8-8-8-|-8-8-8-8-8-8-8-8-8-8-8-8-8-8-8-8-|
|-6-6-6-6-6-6-6-6-6-6-6-6-6-6-6-6-|-6-6-6-6-6-6-6-6-6-6-6-6-6-6-6-6-|
|---------------------------------|---------------------------------|


  G5                                N.C.
    PM--------------------------|
  S S S S S S S S S S S S S S S S   S S S S S S S S S S S S S S S S
|---------------------------------|---------------------------------|
|---------------------------------|---------------------------------|
|-5-------------------------------|---------------------------------|
|-5-------------------------------|---------------------------------|
|-5-5-5-5-5-5-5-5-5-5-5-5-5-5-5-5-|-------------5-5-6-6-8-8-6-6-5---|
|-5-5-5-5-5-5-5-5-5-5-5-5-5-5-5-5-|-5-5-7-7-8-8-------------------8-|
|
| Gtr IV
| S S S S S S S S S S S S S S S S   W
|-----5-----5-----8-----8-----8---|---------------------------------|
|-------6-----6-----6-----6-----6-|---------------------------------|
|-5-5-----5-----5-----5-----5-----|---------------------------------|
|---------------------------------|---------------------------------|
|---------------------------------|---------------------------------|
|---------------------------------|---------------------------------|


  Eb5                     Ebmaj7
  PM--------------------|   PM  PM|     PM    PM------------|   PM  PM  PM
  S   S S S S S S S S   S S S S S S S   S   S S S S S S S S S S S S S S S
|-------------------------------------|-----------------------------------|
|-------------------------------------|-----------------------------------|
|-------------------------7---8-----8-|-----7-----------------7---8---7---|
|-8---8-8-8-8-8-8-8-8---8-8-8-8-8-8-8-|-8---8-8-8-8-8-8-8-8-8-8-8-8-8-8-8-|
|-6---6-6-6-6-6-6-6-6---6-6-6-6-6-6-6-|-6---6-6-6-6-6-6-6-6-6-6-6-6-6-6-6-|
|-------------------------------------|-----------------------------------|
|
| T T S S S Q       T T S S S Q         T T S S S Q       S S S S E   E
|-----------3-----------------3-------|-----------3-----------------------|
|-1h3p1-------------1h3p1-------------|-1h3p1-------------3-1-------------|
|-------3-0---------------3-0---------|-------3-0-------------3-2-0---2---|
|-------------------------------------|-----------------------------------|
|-------------------------------------|-----------------------------------|
|-------------------------------------|-----------------------------------|


    PM--------------------------|
  S S S S S S S S S S S S S S S S   S S S S S S S S S S S S S S S S
|---------------------------------|---------------------------------||
|---------------------------------|---------------------------------||
|-5-------------------------------|---------------------------------||
|-5-------------------------------|---------------------------------||
|-5-5-5-5-5-5-5-5-5-5-5-5-5-5-5-5-|-------------5-5-6-6-8-8-6-6-5---||
|-5-5-5-5-5-5-5-5-5-5-5-5-5-5-5-5-|-5-5-7-7-8-8-------------------8-||
|
| S S S S S S S S S S S S S S S S   W
|-----5-----5-----8-----8-----8---|---------------------------------||
|-------6-----6-----6-----6-----6-|---------------------------------||
|-5-5-----5-----5-----5-----5-----|---------------------------------||
|---------------------------------|---------------------------------||
|---------------------------------|---------------------------------||
|---------------------------------|---------------------------------||


   Out-Chorus
    D5                                        Bm
    Gtr I
     S  S S S  S  S S S  S  S S S  S  S S S   S S S S S  S S S S S S S S S S S
||------------------------------------------|----------------------------------|
||o-----------------------------------------|-3-3-3-3-3--3-3-3-3-3-3-3-3-3-3-3-|
||------------------------------------------|-4-4-4-4-4--4-4-4-4-4-4-4-4-4-4-4-|
||------------------------------------------|-4-4-4-4-4--4-4-4-4-4-4-4-4-4-4-4-|
||o-12-12-----12-12-----12-12-----12-12-----|-2-2-2-2-2--2-2-2-2-2-2-2-2-2-2-2-|
||--12-12-0-0-12-12-0-0-12-12-0-0-12-12-0-0-|----------------------------------|
|
|   Gtr II
|    S  S S S  S  S S S  S  S S S  S  S S S   S S S S H.
||------------------------------------------|----------------------------------|
||o-----------------------------------------|-------8--------------------------|
||--12S11------9S11-----11S=9------9S=7-----|-7-7-7-7-7------------------------|
||------------------------------------------|-x-x-x-x-x------------------------|
||o-10S=9-x-x--7S=9-x-x--9S=7-x-x--7S=5-x-x-|-5-5-5-5-5------------------------|
||------------------------------------------|----------------------------------|


  A5                                    G5              F#5
                                                          PM|   PM|   PM
   S  S S S S  S S S  S S S S S S S S   S S S S S S S S S S S S S S S S  4x
|-------------------------------------|----------------------------------||
|-------------------------------------|---------------------------------o||
|--2--2-2-2-2--2-2-2--2-2-2-2-2-2-2-2-|----------------------------------||
|--2--2-2-2-2--2-2-2--2-2-2-2-2-2-2-2-|----------------------------------||
|--0--0-0-0-0--0-0-0--0-0-0-0-0-0-0-0-|-5-5-5-5-5-5-5-5-4-----4-----4---o||
|-------------------------------------|-5-5-5-5-5-5-5-5-4-4-4-4-4-4-4-4--||
|
|  S  S S S S  S S S  S S S S S S S S   H               H                4x
|-------------------------------------|-3---------------5----------------||
|-------------------------------------|-3---------------3---------------o||
|-12S11-----9S11-----11S9-----9S7-----|-4---------------2----------------||
|-------------------------------------|-5---------------4----------------||
|-10S=9-x-x-7S=9-x-x--9S7-x-x-7S5-x-x-|---------------------------------o||
|-------------------------------------|----------------------------------||


             Outro (I, Robot)
  Slower Q=68
  D5          Fsus2                  N.C.
             6/8
  Gtrs I, II
               >
  W           +H.             H.
|----------||---------------|--------------------------|
|----------||---------------|--------------------------|
|-2--------||-(2)-----------|--------------------------|
|-0--------||-(0)-----------|--------------------------|
|-0--------||-(0)-----------|--------------------------|
|-0--------||-(0)-----------|--------------------------|
|
| Gtr III
| W            E  E E E E E   E  E E S  S  S  S  S  S
|----------||---------------|--------------------------|
|----------||--8------8-----|-8------8h10--8h10--8h10--|
|----------||-----0-----0---|----0---------------------|
|----------||--7------------|--------------------------|
|----------||--8----8-8---8-|-8----8-0-(0)-0-(0)-0-(0)-|
|----------||---------------|--------------------------|


  Fsus2          N.C.
  Gtr II
  E  e H         H.
|---10---------|--------------------------|
|--------------|--------------------------|
|--------------|--------------------------|
|--------------|--------------------------|
|--------------|--------------------------|
|--------------|--------------------------|
|
| E  E E E E E   E  E E S  S  S  S  S  S
|--------------|--------------------------|
|-8------8-----|-8------8h10--8h10--8h10--|
|----0-----0---|----0---------------------|
|--------------|--------------------------|
|-8----8-8---8-|-8----8-0-(0)-0-(0)-0-(0)-|
|--------------|--------------------------|


  Fsus2                 N.C.
  H.             H.
|--------------|--------------------------|
|--------------|--------------------------|
|--------------|--------------------------|
|--------------|--------------------------|
|--------------|--------------------------|
|--------------|--------------------------|
|
| E  E E E E E   E  E E S  S  S  S  S  S
|--------------|--------------------------|
|-8------8-----|-8------8h10--8h10--8h10--|
|----0-----0---|----0---------------------|
|--------------|--------------------------|
|-8----8-8---8-|-8----8-0-(0)-0-(0)-0-(0)-|
|--------------|--------------------------|


   Outro
    Fsus2               N.C.
    Gtrs I, III
    E E E E E E   E E E S  S  S  S  S  S
||--------------|-------------------------|
||o-8-----8-----|-8-----8h10--8h10--8h10--|
||----0-----0---|---0---------------------|
||--------------|-------------------------|
||o-8---8-8---8-|-8---8-0-(0)-0-(0)-0-(0)-|
||--------------|-------------------------|


  Fsus2               N.C.
  E E E E E E   E E E S  S  S  S  S  S    3x
|-------------|---------------------------||
|-8-----8-----|-8-----8h10--8h10--8h10---o||
|---0-----0---|---0-----------------------||
|-------------|---------------------------||
|-8---8-8---8-|-8---8-0-(0)-0-(0)-0-(0)--o||
|-------------|---------------------------||


  H.=H
  Fsus2               N.C.
  E E E E E E   E E E S  S  S  S  S  S
|-------------|-------------------------|
|-8-----8-----|-8-----8h10--8h10--8h10--|
|---0-----0---|---0---------------------|
|-------------|-------------------------|
|-8---8-8---8-|-8---8-0-(0)-0-(0)-0-(0)-|
|-------------|-------------------------|


  H.=H
  Fsus2               N.C.
  E E E E E E   E E E S  S  S  S  S  S
|-------------|-------------------------|
|-8-----8-----|-8-----8h10--8h10--8h10--|
|---0-----0---|---0---------------------|
|-------------|-------------------------|
|-8---8-8---8-|-8---8-0-(0)-0-(0)-0-(0)-|
|-------------|-------------------------|


  Free Time Q=50
  N.C.
  H.        +H.        +H.
|---------|----------|--------*|
|---------|----------|--------*|
|-0-------|-(0)------|-(0)----*|
|---------|----------|--------*|
|---------|----------|--------*|
|---------|----------|--------*|

from Cobalt and Calcium.com

Duration Legend
---------------
W - whole; H - half; Q - quarter; E - 8th; S - 16th; T - 32nd; X - 64th; a - acciaccatura
+ - note tied to previous; . - note dotted; .. - note double dotted
Uncapitalized letters represent notes that are staccato (1/2 duration)
Irregular groupings are notated above the duration line
Duration letters will always appear directly above the note/fret number it represents the
duration for.  Duration letters with no fret number below them represent rests.  Multi-
bar rests are notated in the form Wxn, where n is the number of bars to rest for.  Low
melody durations appear below the staff

Tablature Legend
----------------
 h   - hammer-on
 p   - pull-off
 b   - bend
 pb  - pre-bend
 r   - bend release (if no number after the r, then release immediately)
 /\  - slide into or out of (from/to "nowhere")
 s   - legato slide
 S   - shift slide
  - natural harmonic
[n]  - artificial harmonic
n(n) - tapped harmonic
 ~   - vibrato
 tr  - trill
 T   - tap
 TP  - trem. picking
 PM  - palm muting
\n/  - tremolo bar dip; n = amount to dip
 \n  - tremolo bar down
 n/  - tremolo bar up
/n\  - tremolo bar inverted dip
 =   - hold bend; also acts as connecting device for hammers/pulls
 <>  - volume swell (louder/softer)
 x   - on rhythm slash represents muted slash
 o   - on rhythm slash represents single note slash

Misc Legend
-----------
 |  - bar
||  - double bar
||o - repeat start
o|| - repeat end
*|  - double bar (ending)
 :  - bar (freetime)
 $  - Segno
 &  - Coda
Tempo markers -  = BPM(8/16=s8/s16), where s8 = swing 8ths, s16 = swing 16ths
comments
print report bad tab
1 comment total.
0 reply
qov wrote on November 29 2006, 07:18 pm

#--------------------------WWW.COBALTANDCALCIUM.COM-------------------------#
#This tab has been exported by Cobalt and Calcium. Please do not distribute #
#--------------------------------------------------------------------------##

copied exactly off the cobalt and calcium site. it says clearly that you are not to post their tabs on other websites.

I want to post or [tab]
guest
You may want to rate the tab now too:
select rating
Please do not post tabs as comments. Select "correction" instead!