Oops, an error
Loading. Please wait.

2113 Tab

ver3
ver3

Whole song

Interactive

More versions @911Tabs.com
1,758 views 6 this week
no commentswrite comment
1 2 3 4 5
accurate
x 3
add to favorites launch autoscroll
font size
0
reset
Autoscroll
+/-
esc
set tempo
stop
Contributor
WARNING: You are trying to view
                                    content from Ultimate-Guitar.com
                                    in an unauthorized application,
                                    which is prohibited.

                                    Please use an official Ultimate
                                    Guitar Tabs application for iPhone,
                                    iPad or Android to access legitimate
                                    chords, guitar, bass, and drum tabs
                                    from Ultimate-Guitar.com database.

                                    Type "ultimate guitar tabs" in Apple
                                    App Store's or Android Market's
                                    search to find the application.
#----------------------------------PLEASE NOTE---------------------------------#
#This file is the author's own work and represents their interpretation of the #
#song. You may only use this file for private study, scholarship, or research. #
#------------------------------------------------------------------------------#

2113
As recorded by Coheed and Cambria

Transcribed by mickyblue
        



Gtr I (D A D G B E) - 'Overdriven 1'
Gtr II (D A D G B E) - 'Overdriven 2'
Gtr III (D A D G B E) - 'Acoustic'
Gtr IV (D A D G B E) - 'Clean'

 Intro
  Moderately Q=160
 4/4
  Gtr I
  H    E E E E   +W           +H     E E E E   +W           +W
|--------------|------------|----------------|------------|--------|
|------------4-|-(4)--------|-(4)----------4-|-(4)--------|-(4)----|
|------5-5-5-5-|-(5)--------|-(5)----5-5-5-5-|-(5)--------|-(5)----|
|------5-5-5-5-|-(5)--------|-(5)----5-5-5-5-|-(5)--------|-(5)----|
|------------6-|-(6)--------|-(6)----------6-|-(6)--------|-(6)----|
|--------------|------------|----------------|------------|--------|


  E E E E E E E E   E E E E E E E E   E E E E E E E E   E E E E E E E E
|-----------------|-----------------|-----------------|------------------|
|-----------------|-----------------|-----------------|------------------|
|---8-------8-----|---8-------8-----|---8-------8-----|---8-------8------|
|-5---5---5---5---|-5---5---5---5---|-5---5---5---5---|-5---5---5---5----|
|-----------------|-----------------|-----------------|------------------|
|-----------------|-----------------|-----------------|------------------|


  E E E E E E E E   E E E E E E E E   E E E E E E E E   E E E E E E E E
|-----------------|-----------------|-----------------|------------------|
|-----------------|-----------------|-----------------|------------------|
|---7-------7-----|---7-------7-----|---7-------7-----|---7-------7------|
|-4---4---4---4---|-4---4---4---4---|-4---4---4---4---|-4---4---4---4----|
|-----------------|-----------------|-----------------|------------------|
|-----------------|-----------------|-----------------|------------------|


  Q.   Q.   Q    E H.      E   Q.   Q.   Q    E H    Q   E
|--------------|-------------|--------------|---------------|
|--------------|-------------|--------------|---------------|
|------8-------|-8-7---------|------8-------|-8-7----5\-----|
|-5---------5--|-------------|-5---------5--|--------5\-----|
|--------------|-------------|--------------|------------0--|
|--------------|-------------|--------------|---------------|


  E E E E E E E E   E E E E E E E E   E E E E E E E E   E E E E E E E E
|-----------------|-----------------|-----------------|------------------||
|-----------------|-----------------|-----------------|------------------||
|---7-------7-----|---7-------7-----|---7-------7-----|---7-------7------||
|-4---4---4---4---|-4---4---4---4---|-4---4---4---4---|-4---4---4---4----||
|-----------------|-----------------|-----------------|------------------||
|-----------------|-----------------|-----------------|------------------||


 Verse
  E E E E E E E E   E E E E E E E E   E E E E E E E E   E E E E E E E E
|-----------------|-----------------|-----------------|------------------|
|-----------------|-----------------|-----------------|------------------|
|---8-------8-----|---8-------8-----|---8-------8-----|---8-------8------|
|-5---5---5---5---|-5---5---5---5---|-5---5---5---5---|-5---5---5---5----|
|-----------------|-----------------|-----------------|------------------|
|-----------------|-----------------|-----------------|------------------|


  E E E E E E E E   E E E E E E E E   E E E E E E E E   E E E E E E E E
|-----------------|-----------------|-----------------|------------------|
|-----------------|-----------------|-----------------|------------------|
|---7-------7-----|---7-------7-----|---7-------7-----|---7-------7------|
|-4---4---4---4---|-4---4---4---4---|-4---4---4---4---|-4---4---4---4----|
|-----------------|-----------------|-----------------|------------------|
|-----------------|-----------------|-----------------|------------------|


   E     E  E  E  E E  E E     E  E E E E E E E
|--------------------------|--------------------|
|--------------------------|--------------------|
|--------8----------8------|------8-------8-----|
|--5--------5-----5----5---|---5----5---5---5---|
|--------------------------|--------------------|
|--------------------------|--------------------|
|
| Gtr II
|  S  S  E  E  E  Q    Q      +W
|----------------13--------|--------------------|
|-13-15-13------------16---|-(16)---------------|
|--0-------15-12-----------|--------------------|
|--------------------------|--------------------|
|--------------------------|--------------------|
|--------------------------|--------------------|


   E     E  E  E  E E  E E    E     E  E  E  E E  E E
|--------------------------|--------------------------|
|--------------------------|--------------------------|
|--------8----------8------|--------8----------8------|
|--5--------5-----5----5---|--5--------5-----5----5---|
|--------------------------|--------------------------|
|--------------------------|--------------------------|
|
|  S  S  E  E  E  Q    Q      S  S  E  E  E  Q    Q
|----------------13--------|----------------13--------|
|-13-15-13------------16---|-13-15-13------------16---|
|--0-------15-12-----------|--0-------15-12-----------|
|--------------------------|--------------------------|
|--------------------------|--------------------------|
|--------------------------|--------------------------|


    E  E  E  E E  E  E E   E  E E E E E E E
|------------------------|------------------|
|------------------------|------------------|
|------7----------7------|----7-------7-----|
|---4-----4----4-----4---|-4----4---4---4---|
|------------------------|------------------|
|------------------------|------------------|
|
|  +Q     Q.      Q.       Q.     E Q   E E
|------------------------|------------------|
|-(16)-------------------|------------------|
|--------/8------/8------|-7------5-7-------|
|------------------------|--------------5-7-|
|------------------------|------------------|
|------------------------|------------------|


   E  E  E  E E  E  E E    E E E E E E E E
|-----------------------|-------------------|
|-----------------------|-------------------|
|-----7----------7------|----7-------7------|
|--4-----4----4-----4---|--4---4---4---4----|
|-----------------------|-------------------|
|-----------------------|-------------------|
|
|                          ~~
| +Q     Q.      Q.        W
|-----------------------|-------------------|
|-----------------------|-------------------|
|-------/8------/8------|-/7----------------|
|-(7)-------------------|-------------------|
|-----------------------|-------------------|
|-----------------------|-------------------|


   E     E  E  E  E E  E E    E     E  E  E  E E  E E
|--------------------------|--------------------------|
|--------------------------|--------------------------|
|--------8----------8------|--------8----------8------|
|--5--------5-----5----5---|--5--------5-----5----5---|
|--------------------------|--------------------------|
|--------------------------|--------------------------|
|
|  S  S  E  E  E  Q    Q      S  S  E  E  E  Q    Q
|----------------13--------|----------------13--------|
|-13-15-13------------16---|-13-15-13------------16---|
|--0-------15-12-----------|--0-------15-12-----------|
|--------------------------|--------------------------|
|--------------------------|--------------------------|
|--------------------------|--------------------------|


   E     E  E  E  E E  E E    E     E  E  E  E E  E E
|--------------------------|----------------------------|
|--------------------------|----------------------------|
|--------8----------8------|--------8----------8--------|
|--5--------5-----5----5---|--5--------5-----5----5-----|
|--------------------------|----------------------------|
|--------------------------|----------------------------|
|
|  S  S  E  E  E  Q    Q      S  S  E  E  E  Q    Q
|----------------13--------|----------------13----------|
|-13-15-13------------16---|-13-15-13------------16-----|
|--0-------15-12-----------|--0-------15-12-------------|
|--------------------------|----------------------------|
|--------------------------|----------------------------|
|--------------------------|----------------------------|


   E E  E  E E  E  E E   E  E E E E E E E
|----------------------|------------------|
|----------------------|------------------|
|----7----------7------|----7-------7-----|
|--4----4----4-----4---|-4----4---4---4---|
|----------------------|------------------|
|----------------------|------------------|
|
|  Q    Q.      Q.       Q.     E Q   E E
|----------------------|------------------|
|-16-------------------|------------------|
|------/8------/8------|-7------5-7-------|
|----------------------|--------------5-7-|
|----------------------|------------------|
|----------------------|------------------|


   E  E E E E E  E  E   E E E E E E  E E
|---------------------|-------------------|
|---------------------|-------------------|
|-----7-------7-------|---7-------7-------|
|--4----4---4----4----|-4---4---4----4----|
|---------------------|-------------------|
|---------------------|-------------------|
|
| +H.           +E  E   E E E E E Q.
|---------------------|-------------------|
|---------------------|-------------------|
|-------------------7-|-8-5-7-------------|
|-(7)-----------(7)---|-------7-8-5-------|
|---------------------|-------------------|
|---------------------|-------------------|


   E     E  E  E  E E  E E    E     E  E  E  E E  E E
|--------------------------|--------------------------|
|--------------------------|--------------------------|
|--------8----------8------|--------8----------8------|
|--5--------5-----5----5---|--5--------5-----5----5---|
|--------------------------|--------------------------|
|--------------------------|--------------------------|
|
|  S  S  E  E  E  Q    Q      S  S  E  E  E  Q    Q
|----------------13--------|----------------13--------|
|-13-15-13------------16---|-13-15-13------------16---|
|--0-------15-12-----------|--0-------15-12-----------|
|--------------------------|--------------------------|
|--------------------------|--------------------------|
|--------------------------|--------------------------|


   E     E  E  E  E E  E E    E     E  E  E  E E  E E
|--------------------------|----------------------------|
|--------------------------|----------------------------|
|--------8----------8------|--------8----------8--------|
|--5--------5-----5----5---|--5--------5-----5----5-----|
|--------------------------|----------------------------|
|--------------------------|----------------------------|
|
|  S  S  E  E  E  Q    Q      S  S  E  E  E  Q    Q
|----------------13--------|----------------13----------|
|-13-15-13------------16---|-13-15-13------------16-----|
|--0-------15-12-----------|--0-------15-12-------------|
|--------------------------|----------------------------|
|--------------------------|----------------------------|
|--------------------------|----------------------------|


    E  E E E E E  E E    E  E E E E E  E E
|---------------------|--------------------|
|---------------------|--------------------|
|------7-------7------|-----7-------7------|
|---4----4---4----4---|--4----4---4----4---|
|---------------------|--------------------|
|---------------------|--------------------|
|
|  +E  E E E E Q.       +E  E E E E Q.
|---------------------|--------------------|
|-(16)----------------|--------------------|
|------5-7---5--------|-----5-7---5--------|
|----------8---7------|-(7)-----8---7------|
|---------------------|--------------------|
|---------------------|--------------------|


   E  E E E E E E E   E E E E   E E E E
|-------------------|--------------------||
|-------------------|--------------------||
|-----7-------7-----|---7---------7------||
|--4----4---4---4---|-4---4-----4---4----||
|-------------------|--------------------||
|-------------------|--------------------||
|
|                               ~~~~~~~~
| +E  E E E E E E E   E E E E   Q   E E
|-------------------|--------------------||
|-------------------|---------/10---8-6--||
|-----5-7---5-------|--------------------||
|-(7)-----8---7-8-5-|-7---5--------------||
|-------------------|---8---6------------||
|-------------------|--------------------||


 Pre-Chorus
  PM------------------------------------------------------------------------|
  E E E E E E E E    E  E E E E E E E    E  E E E E E E E    E  E E E E E E E
|-----------------|-------------------|-------------------|--------------------|
|-----------------|-------------------|-------------------|--------------------|
|-----------------|-------7---8-----8-|-------7-----------|-------7---8---7----|
|-8-8-8-8-8-8-8-8-|--8--8-8-8-8-8-8-8-|--8--8-8-8-8-8-8-8-|--8--8-8-8-8-8-8-8--|
|-6-6-6-6-6-6-6-6-|--6--6-6-6-6-6-6-6-|--6--6-6-6-6-6-6-6-|--6--6-6-6-6-6-6-6--|
|-----------------|-------------------|-------------------|--------------------|
|
| ~~~~~~~~~~~~~~~~~~~~~~~~~~~~~~~~~~~~~~~~~~~~~~~~~~~~~~~~~~~~~~
| W                 +W                  +W                  +W
|-----------------|-------------------|-------------------|--------------------|
|-8---------------|-(8)---------------|-(8)---------------|-(8)----------------|
|-----------------|-------------------|-------------------|--------------------|
|-----------------|-------------------|-------------------|--------------------|
|-----------------|-------------------|-------------------|--------------------|
|-----------------|-------------------|-------------------|--------------------|


    PM----------------------------------------------------------------|
  E E E E E E E E   E E E E E E E E   E E E E E E E E   E E E E E E E E
|-----------------|-----------------|-----------------|------------------|
|-----------------|-----------------|-----------------|------------------|
|-----------------|-----------------|-----------------|------------------|
|-----------------|-----------------|-----------------|------------------|
|-5-5-5-5-5-5-5-5-|-5-5-5-5-5-5-5-5-|-5-5-5-5-5-5-5-5-|-5-5-5-5-5-5-5-5--|
|-5-5-5-5-5-5-5-5-|-5-5-5-5-5-5-5-5-|-5-5-5-5-5-5-5-5-|-5-5-5-5-5-5-5-5--|
|
| E E E E E E E E   E E E E E E E E   E E E E E E E E   E E E E E E E E
|-----5-----5-----|-8-----8-----8---|-----5-----5-----|-8-----8-----8----|
|-------6-----6---|---6-----6-----6-|-------6-----6---|---6-----6-----6--|
|-5-5-----5-----5-|-----5-----5-----|-5-5-----5-----5-|-----5-----5------|
|-----------------|-----------------|-----------------|------------------|
|-----------------|-----------------|-----------------|------------------|
|-----------------|-----------------|-----------------|------------------|


  PM------------------------------------------------------------------------|
  E   E E E E E E E   E   E E E E E E E   E   E E E E E E E   E E E E E E E E
|-------------------|-------------------|-------------------|-----------------|
|-------------------|-------------------|-------------------|-----------------|
|-------------------|-------7---8-----8-|-------7-----------|-----7---8---7---|
|-8---8-8-8-8-8-8-8-|-8---8-8-8-8-8-8-8-|-8---8-8-8-8-8-8-8-|-8-8-8-8-8-8-8-8-|
|-6---6-6-6-6-6-6-6-|-6---6-6-6-6-6-6-6-|-6---6-6-6-6-6-6-6-|-6-6-6-6-6-6-6-6-|
|-------------------|-------------------|-------------------|-----------------|
|
| S S E E E H         S S E E E H         S S E E E H         E E E E Q   Q
|-----------3-------|-----------3-------|-----------3-------|-----------------|
|-1-3-1-------------|-1-3-1-------------|-1-3-1-------------|-3-1-------------|
|-------3-0---------|-------3-0---------|-------3-0---------|-----3-2-0---2---|
|-------------------|-------------------|-------------------|-----------------|
|-------------------|-------------------|-------------------|-----------------|
|-------------------|-------------------|-------------------|-----------------|


    PM----------------------------------------------------------------|
  E E E E E E E E   E E E E E E E E   E E E E E E E E   E E E E E E E E
|-----------------|-----------------|-----------------|------------------||
|-----------------|-----------------|-----------------|------------------||
|-----------------|-----------------|-----------------|------------------||
|-----------------|-----------------|-----------------|------------------||
|-5-5-5-5-5-5-5-5-|-5-5-5-5-5-5-5-5-|-5-5-5-5-5-5-5-5-|-5-5-5-5-5-5-5-5--||
|-5-5-5-5-5-5-5-5-|-5-5-5-5-5-5-5-5-|-5-5-5-5-5-5-5-5-|-5-5-5-5-5-5-5-5--||
|
| E E E E E E E E   E E E E E E E E   E E E E E E E E   E E E E E E E E
|-----5-----5-----|-8-----8-----8---|-----5-----5-----|-8-----8-----8----||
|-------6-----6---|---6-----6-----6-|-------6-----6---|---6-----6-----6--||
|-5-5-----5-----5-|-----5-----5-----|-5-5-----5-----5-|-----5-----5------||
|-----------------|-----------------|-----------------|------------------||
|-----------------|-----------------|-----------------|------------------||
|-----------------|-----------------|-----------------|------------------||


 Verse
  E E E E E E E E   E E E E E E E E   E E E E E E E E   E E E E E E E E
|-----------------|-----------------|-----------------|------------------|
|-----------------|-----------------|-----------------|------------------|
|---8-------8-----|---8-------8-----|---8-------8-----|---8-------8------|
|-5---5---5---5---|-5---5---5---5---|-5---5---5---5---|-5---5---5---5----|
|-----------------|-----------------|-----------------|------------------|
|-----------------|-----------------|-----------------|------------------|


  E E E E E E E E   E E E E E E E E   E E E E E E E E   E E E E E E E E
|-----------------|-----------------|-----------------|------------------|
|-----------------|-----------------|-----------------|------------------|
|---7-------7-----|---7-------7-----|---7-------7-----|---7-------7------|
|-4---4---4---4---|-4---4---4---4---|-4---4---4---4---|-4---4---4---4----|
|-----------------|-----------------|-----------------|------------------|
|-----------------|-----------------|-----------------|------------------|


   E     E  E  E  E E  E E    E     E  E  E  E E  E E
|--------------------------|--------------------------|
|--------------------------|--------------------------|
|--------8----------8------|--------8----------8------|
|--5--------5-----5----5---|--5--------5-----5----5---|
|--------------------------|--------------------------|
|--------------------------|--------------------------|
|
| Gtr II
|  S  S  E  E  E  Q    Q      S  S  E  E  E  Q    Q
|----------------13--------|----------------13--------|
|-13-15-13------------16---|-13-15-13------------16---|
|--0-------15-12-----------|--0-------15-12-----------|
|--------------------------|--------------------------|
|--------------------------|--------------------------|
|--------------------------|--------------------------|


   E     E  E  E  E E  E E    E     E  E  E  E E  E E
|--------------------------|----------------------------|
|--------------------------|----------------------------|
|--------8----------8------|--------8----------8--------|
|--5--------5-----5----5---|--5--------5-----5----5-----|
|--------------------------|----------------------------|
|--------------------------|----------------------------|
|
|  S  S  E  E  E  Q    Q      S  S  E  E  E  Q    Q
|----------------13--------|----------------13----------|
|-13-15-13------------16---|-13-15-13------------16-----|
|--0-------15-12-----------|--0-------15-12-------------|
|--------------------------|----------------------------|
|--------------------------|----------------------------|
|--------------------------|----------------------------|


    E  E  E  E E  E  E E   E  E E E E E E E
|------------------------|------------------|
|------------------------|------------------|
|------7----------7------|----7-------7-----|
|---4-----4----4-----4---|-4----4---4---4---|
|------------------------|------------------|
|------------------------|------------------|
|
|  +Q     Q.      Q.       Q.     E Q   E E
|------------------------|------------------|
|-(16)-------------------|------------------|
|--------/8------/8------|-7------5-7-------|
|------------------------|--------------5-7-|
|------------------------|------------------|
|------------------------|------------------|


   E  E  E  E E  E  E E    E E E E E E E E
|-----------------------|-------------------|
|-----------------------|-------------------|
|-----7----------7------|----7-------7------|
|--4-----4----4-----4---|--4---4---4---4----|
|-----------------------|-------------------|
|-----------------------|-------------------|
|
|                          ~~
| +Q     Q.      Q.        W
|-----------------------|-------------------|
|-----------------------|-------------------|
|-------/8------/8------|-/7----------------|
|-(7)-------------------|-------------------|
|-----------------------|-------------------|
|-----------------------|-------------------|


   E     E  E  E  E E  E E    E     E  E  E  E E  E E
|--------------------------|--------------------------|
|--------------------------|--------------------------|
|--------8----------8------|--------8----------8------|
|--5--------5-----5----5---|--5--------5-----5----5---|
|--------------------------|--------------------------|
|--------------------------|--------------------------|
|
|  S  S  E  E  E  Q    Q      S  S  E  E  E  Q    Q
|----------------13--------|----------------13--------|
|-13-15-13------------16---|-13-15-13------------16---|
|--0-------15-12-----------|--0-------15-12-----------|
|--------------------------|--------------------------|
|--------------------------|--------------------------|
|--------------------------|--------------------------|


   E     E  E  E  E E  E E    E     E  E  E  E E  E E
|--------------------------|----------------------------|
|--------------------------|----------------------------|
|--------8----------8------|--------8----------8--------|
|--5--------5-----5----5---|--5--------5-----5----5-----|
|--------------------------|----------------------------|
|--------------------------|----------------------------|
|
|  S  S  E  E  E  Q    Q      S  S  E  E  E  Q    Q
|----------------13--------|----------------13----------|
|-13-15-13------------16---|-13-15-13------------16-----|
|--0-------15-12-----------|--0-------15-12-------------|
|--------------------------|----------------------------|
|--------------------------|----------------------------|
|--------------------------|----------------------------|


    E  E E E E E  E E    E  E E E E E  E E
|---------------------|--------------------|
|---------------------|--------------------|
|------7-------7------|-----7-------7------|
|---4----4---4----4---|--4----4---4----4---|
|---------------------|--------------------|
|---------------------|--------------------|
|
|  +E  E E E E Q.       +E  E E E E Q.
|---------------------|--------------------|
|-(16)----------------|--------------------|
|------5-7---5--------|-----5-7---5--------|
|----------8---7------|-(7)-----8---7------|
|---------------------|--------------------|
|---------------------|--------------------|


   E  E E E E E E E   E E E E   E E E E
|-------------------|--------------------||
|-------------------|--------------------||
|-----7-------7-----|---7---------7------||
|--4----4---4---4---|-4---4-----4---4----||
|-------------------|--------------------||
|-------------------|--------------------||
|
|                               ~~~~~~~~
| +E  E E E E E E E   E E E E   Q   E E
|-------------------|--------------------||
|-------------------|---------/10---8-6--||
|-----5-7---5-------|--------------------||
|-(7)-----8---7-8-5-|-7---5--------------||
|-------------------|---8---6------------||
|-------------------|--------------------||


 Pre-Chorus
  PM------------------------------------------------------------------------|
  E E E E E E E E    E  E E E E E E E    E  E E E E E E E    E  E E E E E E E
|-----------------|-------------------|-------------------|--------------------|
|-----------------|-------------------|-------------------|--------------------|
|-----------------|-------7---8-----8-|-------7-----------|-------7---8---7----|
|-8-8-8-8-8-8-8-8-|--8--8-8-8-8-8-8-8-|--8--8-8-8-8-8-8-8-|--8--8-8-8-8-8-8-8--|
|-6-6-6-6-6-6-6-6-|--6--6-6-6-6-6-6-6-|--6--6-6-6-6-6-6-6-|--6--6-6-6-6-6-6-6--|
|-----------------|-------------------|-------------------|--------------------|
|
| ~~~~~~~~~~~~~~~~~~~~~~~~~~~~~~~~~~~~~~~~~~~~~~~~~~~~~~~~~~~~~~
| W                 +W                  +W                  +W
|-----------------|-------------------|-------------------|--------------------|
|-8---------------|-(8)---------------|-(8)---------------|-(8)----------------|
|-----------------|-------------------|-------------------|--------------------|
|-----------------|-------------------|-------------------|--------------------|
|-----------------|-------------------|-------------------|--------------------|
|-----------------|-------------------|-------------------|--------------------|


    PM----------------------------------------------------------------|
  E E E E E E E E   E E E E E E E E   E E E E E E E E   E E E E E E E E
|-----------------|-----------------|-----------------|------------------|
|-----------------|-----------------|-----------------|------------------|
|-----------------|-----------------|-----------------|------------------|
|-----------------|-----------------|-----------------|------------------|
|-5-5-5-5-5-5-5-5-|-5-5-5-5-5-5-5-5-|-5-5-5-5-5-5-5-5-|-5-5-5-5-5-5-5-5--|
|-5-5-5-5-5-5-5-5-|-5-5-5-5-5-5-5-5-|-5-5-5-5-5-5-5-5-|-5-5-5-5-5-5-5-5--|
|
| E E E E E E E E   E E E E E E E E   E E E E E E E E   E E E E E E E E
|-----5-----5-----|-8-----8-----8---|-----5-----5-----|-8-----8-----8----|
|-------6-----6---|---6-----6-----6-|-------6-----6---|---6-----6-----6--|
|-5-5-----5-----5-|-----5-----5-----|-5-5-----5-----5-|-----5-----5------|
|-----------------|-----------------|-----------------|------------------|
|-----------------|-----------------|-----------------|------------------|
|-----------------|-----------------|-----------------|------------------|


  PM------------------------------------------------------------------------|
  E   E E E E E E E   E   E E E E E E E   E   E E E E E E E   E E E E E E E E
|-------------------|-------------------|-------------------|-----------------|
|-------------------|-------------------|-------------------|-----------------|
|-------------------|-------7---8-----8-|-------7-----------|-----7---8---7---|
|-8---8-8-8-8-8-8-8-|-8---8-8-8-8-8-8-8-|-8---8-8-8-8-8-8-8-|-8-8-8-8-8-8-8-8-|
|-6---6-6-6-6-6-6-6-|-6---6-6-6-6-6-6-6-|-6---6-6-6-6-6-6-6-|-6-6-6-6-6-6-6-6-|
|-------------------|-------------------|-------------------|-----------------|
|
| S S E E E H         S S E E E H         S S E E E H         E E E E Q   Q
|-----------3-------|-----------3-------|-----------3-------|-----------------|
|-1-3-1-------------|-1-3-1-------------|-1-3-1-------------|-3-1-------------|
|-------3-0---------|-------3-0---------|-------3-0---------|-----3-2-0---2---|
|-------------------|-------------------|-------------------|-----------------|
|-------------------|-------------------|-------------------|-----------------|
|-------------------|-------------------|-------------------|-----------------|


    PM----------------------------------------------------------------|
  E E E E E E E E   E E E E E E E E   E E E E E E E E   E E E E E E E E
|-----------------|-----------------|-----------------|------------------||
|-----------------|-----------------|-----------------|------------------||
|-----------------|-----------------|-----------------|------------------||
|-----------------|-----------------|-----------------|------------------||
|-5-5-5-5-5-5-5-5-|-5-5-5-5-5-5-5-5-|-5-5-5-5-5-5-5-5-|-5-5-5-5-5-5-5-5--||
|-5-5-5-5-5-5-5-5-|-5-5-5-5-5-5-5-5-|-5-5-5-5-5-5-5-5-|-5-5-5-5-5-5-5-5--||
|
| E E E E E E E E   E E E E E E E E   E E E E E E E E   E E E E E E E E
|-----5-----5-----|-8-----8-----8---|-----5-----5-----|-8-----8-----8----||
|-------6-----6---|---6-----6-----6-|-------6-----6---|---6-----6-----6--||
|-5-5-----5-----5-|-----5-----5-----|-5-5-----5-----5-|-----5-----5------||
|-----------------|-----------------|-----------------|------------------||
|-----------------|-----------------|-----------------|------------------||
|-----------------|-----------------|-----------------|------------------||


 Chorus
   E  E E E  E  E E E    E  E E E  E  E E E
|---------------------|---------------------|
|---------------------|---------------------|
|---------------------|---------------------|
|---------------------|---------------------|
|--0--0------0--0-----|--0--0------0--0-----|
|--0--0-0-0--0--0-0-0-|--0--0-0-0--0--0-0-0-|
|
|  E  E E E  E  E E E    E  E E E  E  E E E
|---------------------|---------------------|
|---------------------|---------------------|
|-12s11-----11s12-----|-12s11-----11s12-----|
|---------------------|---------------------|
|-10s=9------9s10-----|-10s=9------9s10-----|
|-------0-0-------0-0-|-------0-0-------0-0-|


   E  E  E  E  E  E  E  E    E  E  E  E  E  E  E  E
|-------------------------|--------------------------|
|-------------------------|--------------------------|
|-------------------------|--------------------------|
|-12-12-12-12-12-12-12-12-|-12-12-12-12-12-12-12-12--|
|--9--9--9--9--9--9--9--9-|--9--9--9--9--9--9--9--9--|
|--9--9--9--9--9--9--9--9-|--9--9--9--9--9--9--9--9--|
|
|  E  E  E  E  E  E  E  E    E  E  E  E  E  E  E  E
|-------------------------|--------------------------|
|-------------------------|--------------------------|
|--7--7--7--7--7--7--7--7-|--7--7--7--7--7--7--7--7--|
|-------------------------|--------------------------|
|--5--5--5--5--5--5--5--5-|--5--5--5--5--5--5--5--5--|
|-------------------------|--------------------------|


   E  E E E E  E E E    E E E E E E E E   E E E E E E E E   E E E E E E E E
|--------------------|------------------|-----------------|------------------|
|--------------------|------------------|-----------------|------------------|
|--------------------|------------------|-----------------|------------------|
|--------------------|------------------|-----------------|------------------|
|--7--7-7-7-7--7-7-7-|--7-7-7-7-7-7-7-7-|-5-5-5-5-5-5-5-5-|-5-----5-----5----|
|--7--7-7-7-7--7-7-7-|--7-7-7-7-7-7-7-7-|-5-5-5-5-5-5-5-5-|-4-4-4-4-4-4-4-4--|
|
|  E  E E E E  E E E    E E E E E E E E   W                 W
|--------------------|------------------|-----------------|------------------|
|--------------------|------------------|-3---------------|-3----------------|
|-12s11-----9s11-----|-11s9-----9s7-----|-4---------------|-2----------------|
|--------------------|------------------|-5---------------|-4----------------|
|-10s=9-----7s=9-----|--9s7-----7s5-----|-----------------|------------------|
|-------x-x------x-x-|------x-x-----x-x-|-----------------|------------------|


   E  E E E  E  E E E    E  E E E  E  E E E
|---------------------|---------------------|
|---------------------|---------------------|
|---------------------|---------------------|
|---------------------|---------------------|
|--0--0------0--0-----|--0--0------0--0-----|
|--0--0-0-0--0--0-0-0-|--0--0-0-0--0--0-0-0-|
|
|  E  E E E  E  E E E    E  E E E  E  E E E
|---------------------|---------------------|
|---------------------|---------------------|
|-12s11-----11s12-----|-12s11-----11s12-----|
|---------------------|---------------------|
|-10s=9------9s10-----|-10s=9------9s10-----|
|-------0-0-------0-0-|-------0-0-------0-0-|


   E  E  E  E  E  E  E  E    E  E  E  E  E  E  E  E
|-------------------------|--------------------------|
|-------------------------|--------------------------|
|-------------------------|--------------------------|
|-12-12-12-12-12-12-12-12-|-12-12-12-12-12-12-12-12--|
|--9--9--9--9--9--9--9--9-|--9--9--9--9--9--9--9--9--|
|--9--9--9--9--9--9--9--9-|--9--9--9--9--9--9--9--9--|
|
|  E  E  E  E  E  E  E  E    E  E  E  E  E  E  E  E
|-------------------------|--------------------------|
|-------------------------|--------------------------|
|--7--7--7--7--7--7--7--7-|--7--7--7--7--7--7--7--7--|
|-------------------------|--------------------------|
|--5--5--5--5--5--5--5--5-|--5--5--5--5--5--5--5--5--|
|-------------------------|--------------------------|


   E  E E E E  E E E    E E E E E E E E   E E E E E E E E   E E E E E E E E
|--------------------|------------------|-----------------|------------------|
|--------------------|------------------|-----------------|------------------|
|--------------------|------------------|-----------------|------------------|
|--------------------|------------------|-----------------|------------------|
|--7--7-7-7-7--7-7-7-|--7-7-7-7-7-7-7-7-|-5-5-5-5-5-5-5-5-|-5-----5-----5----|
|--7--7-7-7-7--7-7-7-|--7-7-7-7-7-7-7-7-|-5-5-5-5-5-5-5-5-|-4-4-4-4-4-4-4-4--|
|
|  E  E E E E  E E E    E E E E E E E E   W                 W
|--------------------|------------------|-----------------|------------------|
|--------------------|------------------|-3---------------|-3----------------|
|-12s11-----9s11-----|-11s9-----9s7-----|-4---------------|-2----------------|
|--------------------|------------------|-5---------------|-4----------------|
|-10s=9-----7s=9-----|--9s7-----7s5-----|-----------------|------------------|
|-------x-x------x-x-|------x-x-----x-x-|-----------------|------------------|


   E  E E E  E  E E E    E  E E E  E  E E E
|---------------------|---------------------|
|---------------------|---------------------|
|---------------------|---------------------|
|---------------------|---------------------|
|--0--0------0--0-----|--0--0------0--0-----|
|--0--0-0-0--0--0-0-0-|--0--0-0-0--0--0-0-0-|
|
|  E  E E E  E  E E E    E  E E E  E  E E E
|---------------------|---------------------|
|---------------------|---------------------|
|-12s11-----11s12-----|-12s11-----11s12-----|
|---------------------|---------------------|
|-10s=9------9s10-----|-10s=9------9s10-----|
|-------0-0-------0-0-|-------0-0-------0-0-|


   E  E  E  E  E  E  E  E    E  E  E  E  E  E  E  E
|-------------------------|--------------------------|
|-------------------------|--------------------------|
|-------------------------|--------------------------|
|-12-12-12-12-12-12-12-12-|-12-12-12-12-12-12-12-12--|
|--9--9--9--9--9--9--9--9-|--9--9--9--9--9--9--9--9--|
|--9--9--9--9--9--9--9--9-|--9--9--9--9--9--9--9--9--|
|
|  E  E  E  E  E  E  E  E    E  E  E  E  E  E  E  E
|-------------------------|--------------------------|
|-------------------------|--------------------------|
|--7--7--7--7--7--7--7--7-|--7--7--7--7--7--7--7--7--|
|-------------------------|--------------------------|
|--5--5--5--5--5--5--5--5-|--5--5--5--5--5--5--5--5--|
|-------------------------|--------------------------|


   E  E E E E  E E E    E E E E E E E E   E E E E E E E E   E E E E E E E E
|--------------------|------------------|-----------------|------------------||
|--------------------|------------------|-----------------|------------------||
|--------------------|------------------|-----------------|------------------||
|--------------------|------------------|-----------------|------------------||
|--7--7-7-7-7--7-7-7-|--7-7-7-7-7-7-7-7-|-5-5-5-5-5-5-5-5-|-5-----5-----5----||
|--7--7-7-7-7--7-7-7-|--7-7-7-7-7-7-7-7-|-5-5-5-5-5-5-5-5-|-4-4-4-4-4-4-4-4--||
|
|  E  E E E E  E E E    E E E E E E E E   W                 W
|--------------------|------------------|-----------------|------------------||
|--------------------|------------------|-3---------------|-3----------------||
|-12s11-----9s11-----|-11s9-----9s7-----|-4---------------|-2----------------||
|--------------------|------------------|-5---------------|-4----------------||
|-10s=9-----7s=9-----|--9s7-----7s5-----|-----------------|------------------||
|-------x-x------x-x-|------x-x-----x-x-|-----------------|------------------||


 Guitar Break
                                    ~~~~~~~
  W          +W            E  E E E Q   Q
|----------|------------|-------------------|
|----------|------------|-------------------|
|----------|------------|-------------------|
|-0--------|-(0)--------|-------------------|
|-0--------|-(0)--------|--7--9-5-5-5--[5]--|
|-0--------|-(0)--------|-------------------|
|
| W          +W           +W
|----------|------------|-------------------|
|----------|------------|-------------------|
|----------|------------|-------------------|
|-0--------|-(0)--------|-(0)---------------|
|-0--------|-(0)--------|-(0)---------------|
|-0--------|-(0)--------|-(0)---------------|


             ~~~
   E  E E E  H       E  E  E E Q  Q     E  E E  E  E E  E   E
|------------------|-----------------|--------------------------|
|------------------|-----------------|--------------------------|
|-------0-6--------|-----------------|--------------------------|
|-----------[7]----|---11-12---------|-12-11-9-------9----------|
|--0--7------------|-9-------0-9--9--|---------12-10---12-[10]--|
|------------------|-----------0--0--|--------------------------|
|
| +W                 W                  W
|------------------|-----------------|--------------------------|
|------------------|-----------------|--------------------------|
|------------------|-----------------|--------------------------|
|-(0)--------------|-----------------|--------------------------|
|-(0)--------------|-----------------|--------------------------|
|-(0)--------------|-----------------|--------------------------|


          ~~~~~~~              ~~~
  E E E E Q   Q     E E E  E   H
|-----------------|------------------|
|-----------------|------------------|
|-----------------|-----0--6---------|
|-----------------|-----------[7]----|
|-7-9-5-5-5--[5]--|-0-7--------------|
|-----------------|------------------|
|
|         ~~~~~~~              ~~~
| E E E E Q   Q     E E E  E   H
|-----------------|------------------|
|-----------------|------------------|
|-----------------|-----0-[6]--------|
|-----------------|-----------[7]----|
|-7-9-5-5-5--[5]--|-0-7--------------|
|-----------------|------------------|


  E  E  E E Q  Q     E  E E  E  E E  E   E
|-----------------|---------------------------|
|-----------------|---------------------------|
|-----------------|---------------------------|
|---11-12---------|-12-11-9-------9-----------|
|-9-------0-9--9--|---------12-10---12-[10]---|
|-----------0--0--|---------------------------|
|
| E  E  E E Q  Q     E  E E  E  E E  E   E
|-----------------|---------------------------|
|-----------------|---------------------------|
|-----------------|---------------------------|
|---11-12---------|-12-11-9-------9-----------|
|-9-------0-9--9--|---------12-10---12--10----|
|-----------0--0--|---------------------------|


          ~~~~~~~              ~~~
  E E E E Q   Q     E E E  E   H
|-----------------|------------------|
|-----------------|------------------|
|-----------------|-----0--6---------|
|-----------------|-----------[7]----|
|-7-9-5-5-5--[5]--|-0-7--------------|
|-----------------|------------------|
|
|         ~~~~~~~              ~~~
| E E E E Q   Q     E E E  E   H
|-----------------|------------------|
|-----------------|------------------|
|-----------------|-----0-[6]--------|
|-----------------|-----------[7]----|
|-7-9-5-5-5--[5]--|-0-7--------------|
|-----------------|------------------|


  E  E  E E Q  Q     E  E E  E  E E  E   E
|-----------------|---------------------------|
|-----------------|---------------------------|
|-----------------|---------------------------|
|---11-12---------|-12-11-9-------9-----------|
|-9-------0-9--9--|---------12-10---12-[10]---|
|-----------0--0--|---------------------------|
|
| E  E  E E Q  Q     E  E E  E  E E  E   E
|-----------------|---------------------------|
|-----------------|---------------------------|
|-----------------|---------------------------|
|---11-12---------|-12-11-9-------9-----------|
|-9-------0-9--9--|---------12-10---12--10----|
|-----------0--0--|---------------------------|


          ~~~~~~~              ~~~
  E E E E Q   Q     E E E  E   H
|-----------------|------------------|
|-----------------|------------------|
|-----------------|-----0--6---------|
|-----------------|-----------[7]----|
|-7-9-5-5-5--[5]--|-0-7--------------|
|-----------------|------------------|
|
|         ~~~~~~~              ~~~
| E E E E Q   Q     E E E  E   H
|-----------------|------------------|
|-----------------|------------------|
|-----------------|-----0-[6]--------|
|-----------------|-----------[7]----|
|-7-9-5-5-5--[5]--|-0-7--------------|
|-----------------|------------------|


  E  E  E E Q  Q     E  E E  E  E E  E   E
|-----------------|---------------------------||
|-----------------|---------------------------||
|-----------------|---------------------------||
|---11-12---------|-12-11-9-------9-----------||
|-9-------0-9--9--|---------12-10---12-[10]---||
|-----------0--0--|---------------------------||
|
| E  E  E E Q  Q     E  E E  E  E E  E   E
|-----------------|---------------------------||
|-----------------|---------------------------||
|-----------------|---------------------------||
|---11-12---------|-12-11-9-------9-----------||
|-9-------0-9--9--|---------12-10---12--10----||
|-----------0--0--|---------------------------||


 Interlude
   E E E  E E E  E E   E  E E  E  Q   S S  E
|--------------------|-----------------------|
|--------------------|-----------------------|
|--------------------|-----------------------|
|--3-2----3-2----3-2-|----3-2--3--5---3-2----|
|--------------------|---------------------5-|
|--------------------|-----------------------|
|
|  E E E  E E E  E E   E  E E  E  Q   S S  E
|--------------------|-----------------------|
|-10-9---10-9---10-9-|---10-9-10-12--10-9----|
|--------------------|--------------------11-|
|--------------------|-----------------------|
|--------------------|-----------------------|
|--------------------|-----------------------|


   E E E  E E E  E E   E  E E  E  Q   S S  E
|--------------------|-------------------------|
|--------------------|-------------------------|
|--------------------|-------------------------|
|--3-2----3-2----3-2-|----3-2--3--5---3-2------|
|--------------------|---------------------5---|
|--------------------|-------------------------|
|
|  E E E  E E E  E E   E  E E  E  Q   S S  E
|--------------------|-------------------------|
|-10-9---10-9---10-9-|---10-9-10-12--10-9------|
|--------------------|--------------------11---|
|--------------------|-------------------------|
|--------------------|-------------------------|
|--------------------|-------------------------|


   E E  E E  E E  E E    E E  E E  E E  E E
|---------------------|---------------------|
|---------------------|---------------------|
|------------4-4------|---------------------|
|-------7-7-------5-5-|--7-7----------------|
|--5-5----------------|-------5-5--3-3--0-0-|
|---------------------|---------------------|
|
|  Q    Q    Q    Q      Q    Q    Q    Q
|------10---13--------|---------------------|
|-13-------------13---|-10-------------10---|
|---------------------|------10---12--------|
|---------------------|---------------------|
|---------------------|---------------------|
|---------------------|---------------------|


   E E  E E  E E  E E    E E  E E  E E  E E
|---------------------|---------------------|
|---------------------|---------------------|
|------------4-4------|---------------------|
|-------7-7-------5-5-|--7-7----------------|
|--5-5----------------|-------5-5--3-3--0-0-|
|---------------------|---------------------|
|
|  Q    Q    Q    Q      Q    Q    Q    Q
|------10---13--------|---------------------|
|-13-------------13---|-10-------------10---|
|---------------------|------10---12--------|
|---------------------|---------------------|
|---------------------|---------------------|
|---------------------|---------------------|


   E E E  E E E  E E   E  E E  E  Q   S S  E
|--------------------|-----------------------|
|--------------------|-----------------------|
|--------------------|-----------------------|
|--3-2----3-2----3-2-|----3-2--3--5---3-2----|
|--------------------|---------------------5-|
|--------------------|-----------------------|
|
|  E E E  E E E  E E   E  E E  E  Q   S S  E
|--------------------|-----------------------|
|-10-9---10-9---10-9-|---10-9-10-12--10-9----|
|--------------------|--------------------11-|
|--------------------|-----------------------|
|--------------------|-----------------------|
|--------------------|-----------------------|


   E E E  E E E  E E   E  E E  E  Q   S S  E
|--------------------|-------------------------|
|--------------------|-------------------------|
|--------------------|-------------------------|
|--3-2----3-2----3-2-|----3-2--3--5---3-2------|
|--------------------|---------------------5---|
|--------------------|-------------------------|
|
|  E E E  E E E  E E   E  E E  E  Q   S S  E
|--------------------|-------------------------|
|-10-9---10-9---10-9-|---10-9-10-12--10-9------|
|--------------------|--------------------11---|
|--------------------|-------------------------|
|--------------------|-------------------------|
|--------------------|-------------------------|


   E E  E E  E E  E E    E E  E E  E E  E E
|---------------------|---------------------|
|---------------------|---------------------|
|------------4-4------|---------------------|
|-------7-7-------5-5-|--7-7----------------|
|--5-5----------------|-------5-5--3-3--0-0-|
|---------------------|---------------------|
|
|  Q    Q    Q    Q      Q    Q    Q    Q
|------10---13--------|---------------------|
|-13-------------13---|-10-------------10---|
|---------------------|------10---12--------|
|---------------------|---------------------|
|---------------------|---------------------|
|---------------------|---------------------|


   E E  E E  E E  E E    E E  E E  E E  E E
|---------------------|---------------------||
|---------------------|---------------------||
|------------4-4------|---------------------||
|-------7-7-------5-5-|--7-7----------------||
|--5-5----------------|-------5-5--3-3--0-0-||
|---------------------|---------------------||
|
|  Q    Q    Q    Q      Q    Q    Q    Q
|------10---13--------|---------------------||
|-13-------------13---|-10-------------10---||
|---------------------|------10---12--------||
|---------------------|---------------------||
|---------------------|---------------------||
|---------------------|---------------------||


 Breakdown
  Gtr IV
   W          +W                 Q   Q  Q  Q     Q   Q  Q  Q
|--0--------|-(0)-------------|------0--------|--0-------------|
|--3--------|-(3)-------------|---------3-----|------3---------|
|--2--------|-(2)-------------|--2---------2--|---------2------|
|--0--------|-(0)-------------|--0------------|------------0---|
|--0--------|-(0)-------------|---------------|----------------|
|--0--------|-(0)-------------|---------------|----------------|
|
|  W          +W                +W              +W
|-----------|-----------------|---------------|----------------|
|-----------|-----------------|---------------|----------------|
|-----------|-----------------|---------------|----------------|
|--0--------|-(0)-------------|-(0)-----------|-(0)------------|
|--0--------|-(0)-------------|-(0)-----------|-(0)------------|
|--0--------|-(0)-------------|-(0)-----------|-(0)------------|
|
| Gtr III
|  W          +Q.   E E E E E    W              +W
|-^2--------|-(2)---2-2-2-2-2-|--2------------|-(2)------------|
|-^3--------|-(3)---3-3-3-3-3-|--3------------|-(3)------------|
|-^2--------|-(2)---2-2-2-2-2-|--2------------|-(2)------------|
|-^0--------|-(0)---0-0-0-0-0-|--0------------|-(0)------------|
|-----------|-----------------|---------------|----------------|
|-----------|-----------------|---------------|----------------|


  W          W            E  E  Q  E E   E E    Q   Q   Q   Q
|----------|----------|----------------------|------------------|
|-1--------|-3--------|----------------------|------------------|
|-0--------|-0--------|----------------------|--------------5---|
|----------|----------|---0--0--0--x-x---0-0-|--0---3---5---5---|
|-3--------|-2--------|---0--0--0--x-x---0-0-|--0---3---5---3---|
|----------|----------|---0--0--0--x-x---0-0-|--0---3---5-------|
|
| W          W            E  E  H        Q      Q   Q   Q   Q
|----------|----------|----------------------|------------------|
|----------|----------|-----13---------------|-10---------------|
|----------|----------|-/14----14------/10---|---------12-------|
|----------|----------|----------------------|-----12------12---|
|-3--------|-2--------|----------------------|------------------|
|----------|----------|----------------------|------------------|
|
| W          W            E  E  Q  E E   E E    Q   Q   Q   Q
|----------|----------|----------------------|------------------|
|-3--------|-3--------|---3--3--3--x-x---3-3-|--3---------------|
|-0--------|-0--------|---2--2--2--x-x---2-2-|--2-----------5---|
|----------|----------|---0--0--0--x-x---0-0-|--0---3---5---5---|

|-3--------|-2--------|---0--0--0--x-x---0-0-|--0---3---5---3---|
|----------|----------|---0--0--0--x-x---0-0-|--0---3---5-------|


    E  E  Q  E E   E E    Q   Q   Q   Q     W          +W
|----------------------|-----------------|--0--------|-(0)--------------|
|----------------------|--3--------------|--3--------|-(3)--------------|
|----------------------|--2-----------5--|--2--------|-(2)--------------|
|---0--0--0--x-x---0-0-|--0---3---5---5--|--0--------|-(0)--------------|
|---0--0--0--x-x---0-0-|--0---3---5---3--|--0--------|-(0)--------------|
|---0--0--0--x-x---0-0-|--0---3---5------|--0--------|-(0)--------------|
|
|   E  E  H        Q      Q   Q   Q   Q     W          +W
|----------------------|-----------------|-----------|------------------|
|-----13---------------|-10--------------|-----------|------------------|
|-/14----14------/10---|---------12------|-----------|------------------|
|----------------------|-----12------12--|--0--------|-(0)--------------|
|----------------------|-----------------|--0--------|-(0)--------------|
|----------------------|-----------------|--0--------|-(0)--------------|
|
|   E  E  Q  E E   E E    Q   Q   Q   Q     W          +Q.   E E E E E
|----------------------|-----------------|-^2--------|-(2)---2-2-2-2-2--|
|---3--3--3--x-x---3-3-|--3--------------|-^3--------|-(3)---3-3-3-3-3--|
|---2--2--2--x-x---2-2-|--2-----------5--|-^2--------|-(2)---2-2-2-2-2--|
|---0--0--0--x-x---0-0-|--0---3---5---5--|-^0--------|-(0)---0-0-0-0-0--|
|---0--0--0--x-x---0-0-|--0---3---5---3--|-----------|------------------|
|---0--0--0--x-x---0-0-|--0---3---5------|-----------|------------------|


   Q   Q  Q  Q     Q   Q  Q  Q    W          W
|------0--------|--0------------|----------|------|
|---------3-----|------3--------|-1--------|-3----|
|--2---------2--|---------2-----|-0--------|-0----|
|--0------------|------------0--|----------|------|
|---------------|---------------|-3--------|-2----|
|---------------|---------------|----------|------|
|
| +W              +W              W          W
|---------------|---------------|----------|------|
|---------------|---------------|----------|------|
|---------------|---------------|----------|------|
|-(0)-----------|-(0)-----------|----------|------|
|-(0)-----------|-(0)-----------|-3--------|-2----|
|-(0)-----------|-(0)-----------|----------|------|
|
|  W              +W              W          W
|--2------------|-(2)-----------|----------|------|
|--3------------|-(3)-----------|-3--------|-3----|
|--2------------|-(2)-----------|-0--------|-0----|
|--0------------|-(0)-----------|----------|------|
|---------------|---------------|-3--------|-2----|
|---------------|---------------|----------|------|


    E  E  Q  E E   E E    Q   Q   Q   Q
|----------------------|-----------------|
|----------------------|-----------------|
|----------------------|--------------5--|
|---0--0--0--x-x---0-0-|--0---3---5---5--|
|---0--0--0--x-x---0-0-|--0---3---5---3--|
|---0--0--0--x-x---0-0-|--0---3---5------|
|
|   E  E  H        Q      Q   Q   Q   Q
|----------------------|-----------------|
|-----13---------------|-10--------------|
|-/14----14------/10---|---------12------|
|----------------------|-----12------12--|
|----------------------|-----------------|
|----------------------|-----------------|
|
|   E  E  Q  E E   E E    Q   Q   Q   Q
|----------------------|-----------------|
|---3--3--3--x-x---3-3-|--3--------------|
|---2--2--2--x-x---2-2-|--2-----------5--|
|---0--0--0--x-x---0-0-|--0---3---5---5--|
|---0--0--0--x-x---0-0-|--0---3---5---3--|
|---0--0--0--x-x---0-0-|--0---3---5------|


    E  E  Q  E E   E E    Q   Q   Q   Q
|----------------------|------------------|
|----------------------|------------------|
|----------------------|--------------5---|
|---0--0--0--x-x---0-0-|--0---3---5---5---|
|---0--0--0--x-x---0-0-|--0---3---5---3---|
|---0--0--0--x-x---0-0-|--0---3---5-------|
|
|   E  E  H        Q      Q   Q   Q   Q
|----------------------|------------------|
|-----13---------------|-10---------------|
|-/14----14------/10---|---------12-------|
|----------------------|-----12------12---|
|----------------------|------------------|
|----------------------|------------------|
|
|   E  E  Q  E E   E E    Q   Q   Q   Q
|----------------------|------------------|
|---3--3--3--x-x---3-3-|--3---------------|
|---2--2--2--x-x---2-2-|--2-----------5---|
|---0--0--0--x-x---0-0-|--0---3---5---5---|
|---0--0--0--x-x---0-0-|--0---3---5---3---|
|---0--0--0--x-x---0-0-|--0---3---5-------|


    E E Q   E E  E E     Q    Q   Q  Q
|--------------------|------------------|
|--------------------|------------------|
|--------------------|---------------5--|
|---1-1-1---x-x--1-1-|---1----3---5--5--|
|---1-1-1---x-x--1-1-|---1----3---5--3--|
|---1-1-1---x-x--1-1-|---1----3---5-----|
|
|   H       Q    Q      +Q    Q   H
|--------------------|------------------|
|-/11------10--------|------------------|
|---------------10---|-(10)--12---------|
|--------------------|-----------12-----|
|--------------------|------------------|
|--------------------|------------------|
|
|   E E Q   E E  E E     Q    Q   Q  Q
|--------------------|------------------|
|---4-4-4---x-x--4-4-|---4--------------|
|---3-3-3---x-x--3-3-|---3-----------5--|
|---1-1-1---x-x--1-1-|---1----3---5--5--|
|---1-1-1---x-x--1-1-|---1----3---5--3--|
|---1-1-1---x-x--1-1-|---1----3---5-----|


    E E Q   E E  E E     Q    Q   Q  Q
|--------------------|-------------------|
|--------------------|-------------------|
|--------------------|---------------5---|
|---1-1-1---x-x--1-1-|---1----3---5--5---|
|---1-1-1---x-x--1-1-|---1----3---5--3---|
|---1-1-1---x-x--1-1-|---1----3---5------|
|
|   H       Q    Q      +Q    Q   H
|--------------------|-------------------|
|-/11------10--------|-------------------|
|---------------10---|-(10)--12----------|
|--------------------|-----------12------|
|--------------------|-------------------|
|--------------------|-------------------|
|
|   E E Q   E E  E E     Q    Q   Q  Q
|--------------------|-------------------|
|---4-4-4---x-x--4-4-|---4---------------|
|---3-3-3---x-x--3-3-|---3-----------5---|
|---1-1-1---x-x--1-1-|---1----3---5--5---|
|---1-1-1---x-x--1-1-|---1----3---5--3---|
|---1-1-1---x-x--1-1-|---1----3---5------|


    E  E  Q  E E   E E    Q   Q   Q   Q
|----------------------|-----------------|
|----------------------|-----------------|
|----------------------|--------------5--|
|---0--0--0--x-x---0-0-|--0---3---5---5--|
|---0--0--0--x-x---0-0-|--0---3---5---3--|
|---0--0--0--x-x---0-0-|--0---3---5------|
|
|   E  E  H        Q      Q   Q   Q   Q
|----------------------|-----------------|
|-----13---------------|-10--------------|
|-/14----14------/10---|---------12------|
|----------------------|-----12------12--|
|----------------------|-----------------|
|----------------------|-----------------|
|
|   E  E  Q  E E   E E    Q   Q   Q   Q
|----------------------|-----------------|
|---3--3--3--x-x---3-3-|--3--------------|
|---2--2--2--x-x---2-2-|--2-----------5--|
|---0--0--0--x-x---0-0-|--0---3---5---5--|
|---0--0--0--x-x---0-0-|--0---3---5---3--|
|---0--0--0--x-x---0-0-|--0---3---5------|


    E  E  Q  E E   E E    Q   Q   Q   Q
|----------------------|------------------|
|----------------------|------------------|
|----------------------|--------------5---|
|---0--0--0--x-x---0-0-|--0---3---5---5---|
|---0--0--0--x-x---0-0-|--0---3---5---3---|
|---0--0--0--x-x---0-0-|--0---3---5-------|
|
|   E  E  H        Q      Q   Q   Q   Q
|----------------------|------------------|
|-----13---------------|-10---------------|
|-/14----14------/10---|---------12-------|
|----------------------|-----12------12---|
|----------------------|------------------|
|----------------------|------------------|
|
|   E  E  Q  E E   E E    Q   Q   Q   Q
|----------------------|------------------|
|---3--3--3--x-x---3-3-|--3---------------|
|---2--2--2--x-x---2-2-|--2-----------5---|
|---0--0--0--x-x---0-0-|--0---3---5---5---|
|---0--0--0--x-x---0-0-|--0---3---5---3---|
|---0--0--0--x-x---0-0-|--0---3---5-------|


    E E Q   E E  E E     Q    Q   Q  Q
|--------------------|------------------|
|--------------------|------------------|
|--------------------|---------------5--|
|---1-1-1---x-x--1-1-|---1----3---5--5--|
|---1-1-1---x-x--1-1-|---1----3---5--3--|
|---1-1-1---x-x--1-1-|---1----3---5-----|
|
|   H       Q    Q      +Q    Q   H
|--------------------|------------------|
|-/11------10--------|------------------|
|---------------10---|-(10)--12---------|
|--------------------|-----------12-----|
|--------------------|------------------|
|--------------------|------------------|
|
|   E E Q   E E  E E     Q    Q   Q  Q
|--------------------|------------------|
|---4-4-4---x-x--4-4-|---4--------------|
|---3-3-3---x-x--3-3-|---3-----------5--|
|---1-1-1---x-x--1-1-|---1----3---5--5--|
|---1-1-1---x-x--1-1-|---1----3---5--3--|
|---1-1-1---x-x--1-1-|---1----3---5-----|


    E E Q   E E  E E     Q    Q   Q  Q
|--------------------|-------------------||
|--------------------|-------------------||
|--------------------|---------------5---||
|---1-1-1---x-x--1-1-|---1----3---5--5---||
|---1-1-1---x-x--1-1-|---1----3---5--3---||
|---1-1-1---x-x--1-1-|---1----3---5------||
|
|                                 ~~
|   H       Q    Q      +Q    Q   H
|--------------------|-----------10------||
|-/11------10--------|-------------------||
|---------------10---|-(10)--12----------||
|--------------------|-------------------||
|--------------------|-------------------||
|--------------------|-------------------||
|
|   E E Q   E E  E E     Q    Q   Q  Q
|--------------------|-------------------||
|---4-4-4---x-x--4-4-|---4---------------||
|---3-3-3---x-x--3-3-|---3-----------5---||
|---1-1-1---x-x--1-1-|---1----3---5--5---||
|---1-1-1---x-x--1-1-|---1----3---5--3---||
|---1-1-1---x-x--1-1-|---1----3---5------||


 Guitar Solo
                         |-3--| |-3-| |-3-|
    E  E E E E E E E     E  E E E E E E E E Q
|--------------------|-------------------------|
|--------------------|-------------------------|
|--------------------|-------------------------|
|--------------------|---0--2-4-0-4-5-7-5-4s2--|
|--------------------|-------------------------|
|---0--2-4-0-5-7-9-0-|-------------------------|
|
|   ~~~~~~~~~~~~~~~~~~~~~~~~
|  +W                   +W
|-(10)---------------|-(10)--------------------|
|--------------------|-------------------------|
|--------------------|-------------------------|
|--------------------|-------------------------|
|--------------------|-------------------------|
|--------------------|-------------------------|


  Q=110
 3/4
  Gtrs II, IV
  S S S S S S S S S S E   S S  S  S S  S S S  S E.
|-----------------------|--------10---10-9-7-------|
|-----------------------|-7-8-10-------------10-8--|
|-----------------------|--------------------------|
|-7s5-5-5s4-4-4s2-2-2s0-|--------------------------|
|-----------------------|--------------------------|
|-----------------------|--------------------------|


  S  S S  S  S  S S  S  S E.
|------9-10-12-10-9-----------|
|---10--------------12-10-----|
|-9-----------------------9---|
|-----------------------------|
|-----------------------------|
|-----------------------------|


   S  S S  S  S S  S  S S  S  S S    E  E  S  S  S  S S  E.
|---------------------------------|-------------------------|
|---------------------------------|-------------------------|
|-12-11-9---------12-11-9---------|-------------------------|
|---------12-10-9---------12-10-9-|-12-12-12-12-12-10-9-----|
|---------------------------------|---------------------12--|
|---------------------------------|-------------------------|


  Q=130
 11/4
                     ~~~~~~~
  |-3-| |3| |3|  |---3---|   |-3-| |3| |3|  |-3--|
  E E E Q E Q E  Q.  Q.  Q.  E E E Q E Q E  Q.   Q.
|----------------------------------------------------|
|----------------------------------------------------|
|-----------------------------------------------[7]--|
|-0-5-7-8-8-7-5-[7]----------0-5-7-8-8-7-5-[7]-------|
|--------------------8---5---------------------------|
|----------------------------------------------------|


                     ~~~~~~~
  |-3-| |3| |3|  |---3---|   |-3-| |3| |3|  |-3--|
  E E E Q E Q E  Q.  Q.  Q.  E E E Q E Q E  Q.   Q.
|----------------------------------------------------|
|----------------------------------------------------|
|-----------------------------------------------[7]--|
|-0-5-7-8-8-7-5-[7]----------0-5-7-8-8-7-5-[7]-------|
|--------------------8---5---------------------------|
|----------------------------------------------------|


  |-3-| |3| |3| |---3---|   |-3-| |3| |3| |-3-|
  E E E Q E Q E Q.  Q.  Q.  E E E Q E Q E Q.  Q.
|-------------------------------------------------|
|-------------------------------------------------|
|---------------------------------------------7---|
|-0-5-7-8-8-7-5-7---3---0---0-5-7-8-8-7-5-7---7---|
|-0-5-7-8-8-7-5-7---3---0---0-5-7-8-8-7-5-7---5---|
|-0-5-7-8-8-7-5-7---3---0---0-5-7-8-8-7-5-7-------|


  |-3-| |3| |3| |---3---|   |-3-| |3| |3| |-3-|
  E E E Q E Q E Q.  Q.  Q.  E E E Q E Q E Q.  Q.
|-------------------------------------------------|
|-------------------------------------------------|
|---------------------------------------------7---|
|-0-5-7-8-8-7-5-7---3---0---0-5-7-8-8-7-5-7---7---|
|-0-5-7-8-8-7-5-7---3---0---0-5-7-8-8-7-5-7---5---|
|-0-5-7-8-8-7-5-7---3---0---0-5-7-8-8-7-5-7-------|


  Q=160
 4/4
  W          +W           +W
|----------|------------|-----------------||
|----------|------------|-----------------||
|----------|------------|-----------------||
|-0--------|-(0)--------|-(0)-------------||
|-0--------|-(0)--------|-(0)-------------||
|-0--------|-(0)--------|-(0)-------------||
|
| Gtr II
| W          +W           +H.      +E  E
|----------|------------|-----------------||
|----------|------------|-----------------||
|----------|------------|-----------------||
|-0--------|-(0)--------|-(0)------(0)-7s=||
|-0--------|-(0)--------|-(0)------(0)----||
|-0--------|-(0)--------|-(0)------(0)----||


 Time Consumer
   E  Q.     Q   E  E   +Q      Q     Q   E  E
|------------0--------|---------------0--------|
|------------8------8-|-(8)-----------8------8-|
|-----------10--10----|--------10----10--10----|
|----12---------------|------------------------|
|---------------------|------------------------|
|---------------------|------------------------|
|
|  E  E  H       E  E    E   E  E  E  Q   E  E
|---------------------|------------------------|
|---------------------|------------------------|
|---------------------|------------------------|
|-10-12--0------12-10-|-----10----12--0--12-10-|
|---------------------|------------------------|
|---------------------|------------------------|


  +Q      Q   Q   E  E   +Q      Q     Q   Q
|-------------0--------|---------------0-------|
|-(8)---------8------8-|-(8)-----------8-------|
|--------10--10--10----|--------10----10-------|
|----------------------|------------------12---|
|----------------------|-----------------------|
|----------------------|-----------------------|
|
|  E   E  Q   Q   E  E    E   E  E  E  Q   Q
|----------------------|-----------------------|
|------------10--------|--------------10-------|
|----------------------|-----------------------|
|-12--10-12------12-10-|-----10----12------0---|
|----------------------|-----------------------|
|----------------------|-----------------------|


   E  E  E  E  E  E  E  E    E  E  E  E  E  E  E  E
|----13-------13-------13-|-------13-------13-------|
|-------15-------15-------|-15-------15-------15----|
|-15-------15-------15----|----15-------15-------15-|
|-------------------------|-------------------------|
|-------------------------|-------------------------|
|-------------------------|-------------------------|
|
|  E  E  E  E  E  E  E  E    E  E  E  E  E  E  Q
|-------------------------|-------------------------|
|----10-------10-------10-|-------10-------10-------|
|-------10-------10-------|-10-------10-------10----|
|--8--------8--------8----|-----8--------8----------|
|-------------------------|-------------------------|
|-------------------------|-------------------------|


   E  E  E  E  E  E  E  E    E  E  E  E  E  E  E  E
|----17-------17-------17-|-------17-------17--------|
|-------15-------15-------|-15-------15-------15-----|
|-17-------17-------17----|----17-------17-------17--|
|-------------------------|--------------------------|
|-------------------------|--------------------------|
|-------------------------|--------------------------|
|
|  E  E  E  E  E  E  E  E    E  E  E  E  E  E  Q
|-------------------------|--------------------------|
|----10-------10-------10-|-------10-------10--------|
|-------10-------10-------|-10-------10-------10-----|
|-10-------10-------10----|----10-------10-----------|
|-------------------------|--------------------------|
|-------------------------|--------------------------|


   E  E  E  E  E  E  E  E    E  E  E  E  E  E  E  E
|----20-------20-------20-|-------20-------20-------|
|-------17-------17-------|-17-------17-------17----|
|-19-------19-------19----|----19-------19-------19-|
|-------------------------|-------------------------|
|-------------------------|-------------------------|
|-------------------------|-------------------------|
|
|  E  E  E  E  E  E  E  E    E  E  E  E  E  E  E  E
|--------------8----------|--------------8----------|
|----11----------11-------|----11----------11-------|
|-------10----------10----|-------10----------10----|
|-/8--------8-----------8-|-/8--------8-----------8-|
|-------------------------|-------------------------|
|-------------------------|-------------------------|


   E  E  E  E  E  E  E  E    E  E  E  E  E  E  E  E
|----20-------20-------20-|-------20-------20--------|
|-------17-------17-------|-17-------17-------17-----|
|-17-------19-------19----|----17-------17-------17--|
|-------------------------|--------------------------|
|-------------------------|--------------------------|
|-------------------------|--------------------------|
|
|  E  E  E  E  E  E  E  E    E  E  E  E  E  E  E  E
|--------------8----------|--------------8-----------|
|----11----------11-------|----11----------11--------|
|-------10----------10----|-------10----------10-----|
|-/8--------8-----------8-|-/8--------8-----------8--|
|-------------------------|--------------------------|
|-------------------------|--------------------------|


   E  E  Q    E  E  E E    E  E  Q    E  E  E E   W          +W
|--------0----0--0------|--------0----0--0------|----------|--------||
|----10--8---10--8------|----10--8---10--8------|----------|--------||
|----10-10---10-10-10---|----10-10---10-10-10---|----------|--------||
|-/8------------------0-|---------------------0-|-0--------|-(0)----||
|-----------------------|-10--------------------|-0--------|-(0)----||
|-----------------------|-----------------------|-0--------|-(0)----||
|
|  E  E  E E  E  E  Q      E  E  E E  E  E  E E   W          +W
|-------------0---------|-------------0---------|----------|--------||
|----10---------10------|----10---------10------|----------|--------||
|-------10---------10---|-------10---------10---|----------|--------||
|-/8-------8------------|----------8----------8-|-0--------|-(0)----||
|-----------------------|-10--------------------|-0--------|-(0)----||
|-----------------------|-----------------------|-0--------|-(0)----||


 Breakdown
  Gtr I
  PM------------------------------------------------------------------|
  E E E E E E E E   E E E E E E E E   E E E E E E E E   E E E E E E E E
|-----------------|-----------------|-----------------|------------------|
|-----------------|-----------------|-----------------|------------------|
|-----------------|-----7---8-----8-|---7-------------|-----7---8---7----|
|-8-8-8-8-8-8-8-8-|-8-8-8-8-8-8-8-8-|-8-8-8-8-8-8-8-8-|-8-8-8-8-8-8-8-8--|
|-6-6-6-6-6-6-6-6-|-6-6-6-6-6-6-6-6-|-6-6-6-6-6-6-6-6-|-6-6-6-6-6-6-6-6--|
|-----------------|-----------------|-----------------|------------------|


    PM----------------------------|
  E E E E E E E E   E E E E E E E E   E E E E E E E E   E E E E E E E E
|-----------------|-----------------|-----------------|------------------|
|-----------------|-----------------|-----------------|------------------|
|-----------------|-----------------|-----------------|------------------|
|-----------------|-----------------|-----------------|------------------|
|-5-5-5-5-5-5-5-5-|-5-5-5-5-5-5-5-5-|-------------5-5-|-6-6-8-8-6-6-5----|
|-5-5-5-5-5-5-5-5-|-5-5-5-5-5-5-5-5-|-5-5-7-7-8-8-----|---------------8--|


  S S S S S S S S S S S S S S S S   S S S S S S S S S S S S S S S S
|---------------------------------|---------------------------------|
|---------------------------------|---------------------------------|
|---------------------------------|---------------------------------|
|---------------------------------|---------------------------------|
|-5-x-x-x-5-x-x-x-x-5-x-5-x-x-x-x-|-5-x-x-x-5-x-x-x-x-5-x-5-x-x-x-x-|
|---------------------------------|---------------------------------|


  S S S S S S S S S S S S S S S S   S S S S S S S S S S S S S S S S
|---------------------------------|---------------------------------|
|---------------------------------|---------------------------------|
|---------------------------------|---------------------------------|
|---------------------------------|---------------------------------|
|-5-x-x-x-5-x-x-x-x-5-x-5-x-x-x-x-|-5-x-x-x-5-x-x-x-x-5-x-5-x-x-x-x-|
|---------------------------------|---------------------------------|


  PM------------------------------------------------------------------|
  E E E E E E E E   E E E E E E E E   E E E E E E E E   E E E E E E E E
|-----------------|-----------------|-----------------|------------------|
|-----------------|-----------------|-----------------|------------------|
|-----------------|-----7---8-----8-|---7-------------|-----7---8---7----|
|-8-8-8-8-8-8-8-8-|-8-8-8-8-8-8-8-8-|-8-8-8-8-8-8-8-8-|-8-8-8-8-8-8-8-8--|
|-6-6-6-6-6-6-6-6-|-6-6-6-6-6-6-6-6-|-6-6-6-6-6-6-6-6-|-6-6-6-6-6-6-6-6--|
|-----------------|-----------------|-----------------|------------------|


    PM----------------------------|
  E E E E E E E E   E E E E E E E E   E E E E E E E E   E E E E E E E E
|-----------------|-----------------|-----------------|------------------|
|-----------------|-----------------|-----------------|------------------|
|-----------------|-----------------|-----------------|------------------|
|-----------------|-----------------|-----------------|------------------|
|-5-5-5-5-5-5-5-5-|-5-5-5-5-5-5-5-5-|-------------5-5-|-6-6-8-8-6-6-5----|
|-5-5-5-5-5-5-5-5-|-5-5-5-5-5-5-5-5-|-5-5-7-7-8-8-----|---------------8--|


  S S S S S S S S S S S S S S S S   S S S S S S S S S S S S S S S S
|---------------------------------|---------------------------------||
|---------------------------------|---------------------------------||
|---------------------------------|---------------------------------||
|---------------------------------|---------------------------------||
|-5-x-x-x-5-x-x-x-x-6-x-6-x-x-x-x-|-5-x-x-x-5-x-x-x-8-6-x-5-x-x-x-x-||
|---------------------------------|---------------------------------||


  S S S S S S S S S S S S S S S S   S S S S S S S S S S S S S S S S
|---------------------------------|---------------------------------||
|---------------------------------|---------------------------------||
|---------------------------------|---------------------------------||
|---------------------------------|---------------------------------||
|-5-x-x-x-5-x-x-x-x-6-x-6-x-x-x-x-|-5-x-x-x-5-x-x-x-x-5-x-5-x-x-x-x-||
|---------------------------------|---------------------------------||


 Pre-Chorus
  PM------------------------------------------------------------------|
  E E E E E E E E   E E E E E E E E   E E E E E E E E   E E E E E E E E
|-----------------|-----------------|-----------------|------------------|
|-----------------|-----------------|-----------------|------------------|
|-----------------|-----7---8-----8-|---7-------------|-----7---8---7----|
|-8-8-8-8-8-8-8-8-|-8-8-8-8-8-8-8-8-|-8-8-8-8-8-8-8-8-|-8-8-8-8-8-8-8-8--|
|-6-6-6-6-6-6-6-6-|-6-6-6-6-6-6-6-6-|-6-6-6-6-6-6-6-6-|-6-6-6-6-6-6-6-6--|
|-----------------|-----------------|-----------------|------------------|


    PM----------------------------|
  E E E E E E E E   E E E E E E E E   E E E E E E E E   E E E E E E E E
|-----------------|-----------------|-----------------|------------------|
|-----------------|-----------------|-----------------|------------------|
|-----------------|-----------------|-----------------|------------------|
|-----------------|-----------------|-----------------|------------------|
|-5-5-5-5-5-5-5-5-|-5-5-5-5-5-5-5-5-|-------------5-5-|-6-6-8-8-6-6-5----|
|-5-5-5-5-5-5-5-5-|-5-5-5-5-5-5-5-5-|-5-5-7-7-8-8-----|---------------8--|
|
| Gtr II
| E E E E E E E E   E E E E E E E E   W                 W
|-----5-----5-----|-8-----8-----8---|-----------------|------------------|
|-------6-----6---|---6-----6-----6-|-----------------|------------------|
|-5-5-----5-----5-|-----5-----5-----|-----------------|------------------|
|-----------------|-----------------|-----------------|------------------|
|-----------------|-----------------|-----------------|------------------|
|-----------------|-----------------|-----------------|------------------|


  PM------------------------------------------------------------------------|
  E   E E E E E E E   E   E E E E E E E   E   E E E E E E E   E E E E E E E E
|-------------------|-------------------|-------------------|-----------------|
|-------------------|-------------------|-------------------|-----------------|
|-------------------|-------7---8-----8-|-----7-------------|-----7---8---7---|
|-8---8-8-8-8-8-8-8-|-8---8-8-8-8-8-8-8-|-8---8-8-8-8-8-8-8-|-8-8-8-8-8-8-8-8-|
|-6---6-6-6-6-6-6-6-|-6---6-6-6-6-6-6-6-|-6---6-6-6-6-6-6-6-|-6-6-6-6-6-6-6-6-|
|-------------------|-------------------|-------------------|-----------------|
|
| S S E E E H         S S E E E H         S S E E E H         E E E E Q   Q
|-----------3-------|-----------3-------|-----------3-------|-----------------|
|-1-3-1-------------|-1-3-1-------------|-1-3-1-------------|-3-1-------------|
|-------3-0---------|-------3-0---------|-------3-0---------|-----3-2-0---2---|
|-------------------|-------------------|-------------------|-----------------|
|-------------------|-------------------|-------------------|-----------------|
|-------------------|-------------------|-------------------|-----------------|


    PM----------------------------|
  E E E E E E E E   E E E E E E E E   E E E E E E E E   E E E E E E E E
|-----------------|-----------------|-----------------|------------------||
|-----------------|-----------------|-----------------|------------------||
|-----------------|-----------------|-----------------|------------------||
|-----------------|-----------------|-----------------|------------------||
|-5-5-5-5-5-5-5-5-|-5-5-5-5-5-5-5-5-|-------------5-5-|-6-6-8-8-6-6-5----||
|-5-5-5-5-5-5-5-5-|-5-5-5-5-5-5-5-5-|-5-5-7-7-8-8-----|---------------8--||
|
| E E E E E E E E   E E E E E E E E   W                 W
|-----5-----5-----|-8-----8-----8---|-----------------|------------------||
|-------6-----6---|---6-----6-----6-|-----------------|------------------||
|-5-5-----5-----5-|-----5-----5-----|-----------------|------------------||
|-----------------|-----------------|-----------------|------------------||
|-----------------|-----------------|-----------------|------------------||
|-----------------|-----------------|-----------------|------------------||


 Chorus
   E  E E E  E  E E E    E  E E E  E  E E E
|---------------------|---------------------|
|---------------------|---------------------|
|---------------------|---------------------|
|---------------------|---------------------|
|--0--0------0--0-----|--0--0------0--0-----|
|--0--0-0-0--0--0-0-0-|--0--0-0-0--0--0-0-0-|
|
|  E  E E E  E  E E E    E  E E E  E  E E E
|---------------------|---------------------|
|---------------------|---------------------|
|-12s11-----11s12-----|-12s11-----11s12-----|
|---------------------|---------------------|
|-10s=9------9s10-----|-10s=9------9s10-----|
|-------0-0-------0-0-|-------0-0-------0-0-|


   E  E  E  E  E  E  E  E    E  E  E  E  E  E  E  E
|-------------------------|--------------------------|
|-------------------------|--------------------------|
|-------------------------|--------------------------|
|-12-12-12-12-12-12-12-12-|-12-12-12-12-12-12-12-12--|
|--9--9--9--9--9--9--9--9-|--9--9--9--9--9--9--9--9--|
|--9--9--9--9--9--9--9--9-|--9--9--9--9--9--9--9--9--|
|
|  E  E  E  E  E  E  E  E    E  E  E  E  E  E  E  E
|-------------------------|--------------------------|
|-------------------------|--------------------------|
|--7--7--7--7--7--7--7--7-|--7--7--7--7--7--7--7--7--|
|-------------------------|--------------------------|
|--5--5--5--5--5--5--5--5-|--5--5--5--5--5--5--5--5--|
|-------------------------|--------------------------|


   E  E E E E  E E E    E E E E E E E E   E E E E E E E E   E E E E E E E E
|--------------------|------------------|-----------------|------------------|
|--------------------|------------------|-----------------|------------------|
|--------------------|------------------|-----------------|------------------|
|--------------------|------------------|-----------------|------------------|
|--7--7-7-7-7--7-7-7-|--7-7-7-7-7-7-7-7-|-5-5-5-5-5-5-5-5-|-5-----5-----5----|
|--7--7-7-7-7--7-7-7-|--7-7-7-7-7-7-7-7-|-5-5-5-5-5-5-5-5-|-4-4-4-4-4-4-4-4--|
|
|  E  E E E E  E E E    E E E E E E E E   W                 W
|--------------------|------------------|-----------------|------------------|
|--------------------|------------------|-3---------------|-3----------------|
|-12s11-----9s11-----|-11s9-----9s7-----|-4---------------|-2----------------|
|--------------------|------------------|-5---------------|-4----------------|
|-10s=9-----7s=9-----|--9s7-----7s5-----|-----------------|------------------|
|-------x-x------x-x-|------x-x-----x-x-|-----------------|------------------|


   E  E E E  E  E E E    E  E E E  E  E E E
|---------------------|---------------------|
|---------------------|---------------------|
|---------------------|---------------------|
|---------------------|---------------------|
|--0--0------0--0-----|--0--0------0--0-----|
|--0--0-0-0--0--0-0-0-|--0--0-0-0--0--0-0-0-|
|
|  E  E E E  E  E E E    E  E E E  E  E E E
|---------------------|---------------------|
|---------------------|---------------------|
|-12s11-----11s12-----|-12s11-----11s12-----|
|---------------------|---------------------|
|-10s=9------9s10-----|-10s=9------9s10-----|
|-------0-0-------0-0-|-------0-0-------0-0-|


   E  E  E  E  E  E  E  E    E  E  E  E  E  E  E  E
|-------------------------|--------------------------|
|-------------------------|--------------------------|
|-------------------------|--------------------------|
|-12-12-12-12-12-12-12-12-|-12-12-12-12-12-12-12-12--|
|--9--9--9--9--9--9--9--9-|--9--9--9--9--9--9--9--9--|
|--9--9--9--9--9--9--9--9-|--9--9--9--9--9--9--9--9--|
|
|  E  E  E  E  E  E  E  E    E  E  E  E  E  E  E  E
|-------------------------|--------------------------|
|-------------------------|--------------------------|
|--7--7--7--7--7--7--7--7-|--7--7--7--7--7--7--7--7--|
|-------------------------|--------------------------|
|--5--5--5--5--5--5--5--5-|--5--5--5--5--5--5--5--5--|
|-------------------------|--------------------------|


   E  E E E E  E E E    E E E E E E E E   E E E E E E E E   E E E E E E E E
|--------------------|------------------|-----------------|------------------|
|--------------------|------------------|-----------------|------------------|
|--------------------|------------------|-----------------|------------------|
|--------------------|------------------|-----------------|------------------|
|--7--7-7-7-7--7-7-7-|--7-7-7-7-7-7-7-7-|-5-5-5-5-5-5-5-5-|-5-----5-----5----|
|--7--7-7-7-7--7-7-7-|--7-7-7-7-7-7-7-7-|-5-5-5-5-5-5-5-5-|-4-4-4-4-4-4-4-4--|
|
|  E  E E E E  E E E    E E E E E E E E   W                 W
|--------------------|------------------|-----------------|------------------|
|--------------------|------------------|-3---------------|-3----------------|
|-12s11-----9s11-----|-11s9-----9s7-----|-4---------------|-2----------------|
|--------------------|------------------|-5---------------|-4----------------|
|-10s=9-----7s=9-----|--9s7-----7s5-----|-----------------|------------------|
|-------x-x------x-x-|------x-x-----x-x-|-----------------|------------------|


   E  E E E  E  E E E    E  E E E  E  E E E
|---------------------|---------------------|
|---------------------|---------------------|
|---------------------|---------------------|
|---------------------|---------------------|
|--0--0------0--0-----|--0--0------0--0-----|
|--0--0-0-0--0--0-0-0-|--0--0-0-0--0--0-0-0-|
|
|  E  E E E  E  E E E    E  E E E  E  E E E
|---------------------|---------------------|
|---------------------|---------------------|
|-12s11-----11s12-----|-12s11-----11s12-----|
|---------------------|---------------------|
|-10s=9------9s10-----|-10s=9------9s10-----|
|-------0-0-------0-0-|-------0-0-------0-0-|


   E  E  E  E  E  E  E  E    E  E  E  E  E  E  E  E
|-------------------------|--------------------------|
|-------------------------|--------------------------|
|-------------------------|--------------------------|
|-12-12-12-12-12-12-12-12-|-12-12-12-12-12-12-12-12--|
|--9--9--9--9--9--9--9--9-|--9--9--9--9--9--9--9--9--|
|--9--9--9--9--9--9--9--9-|--9--9--9--9--9--9--9--9--|
|
|  E  E  E  E  E  E  E  E    E  E  E  E  E  E  E  E
|-------------------------|--------------------------|
|-------------------------|--------------------------|
|--7--7--7--7--7--7--7--7-|--7--7--7--7--7--7--7--7--|
|-------------------------|--------------------------|
|--5--5--5--5--5--5--5--5-|--5--5--5--5--5--5--5--5--|
|-------------------------|--------------------------|


   E  E E E E  E E E    E E E E E E E E   E E E E E E E E   E E E E E E E E
|--------------------|------------------|-----------------|------------------|
|--------------------|------------------|-----------------|------------------|
|--------------------|------------------|-----------------|------------------|
|--------------------|------------------|-----------------|------------------|
|--7--7-7-7-7--7-7-7-|--7-7-7-7-7-7-7-7-|-5-5-5-5-5-5-5-5-|-5-----5-----5----|
|--7--7-7-7-7--7-7-7-|--7-7-7-7-7-7-7-7-|-5-5-5-5-5-5-5-5-|-4-4-4-4-4-4-4-4--|
|
|  E  E E E E  E E E    E E E E E E E E   W                 W
|--------------------|------------------|-----------------|------------------|
|--------------------|------------------|-3---------------|-3----------------|
|-12s11-----9s11-----|-11s9-----9s7-----|-4---------------|-2----------------|
|--------------------|------------------|-5---------------|-4----------------|
|-10s=9-----7s=9-----|--9s7-----7s5-----|-----------------|------------------|
|-------x-x------x-x-|------x-x-----x-x-|-----------------|------------------|


   E  E E E  E  E E E    E  E E E  E  E E E
|---------------------|---------------------|
|---------------------|---------------------|
|---------------------|---------------------|
|---------------------|---------------------|
|--0--0------0--0-----|--0--0------0--0-----|
|--0--0-0-0--0--0-0-0-|--0--0-0-0--0--0-0-0-|
|
|  E  E E E  E  E E E    E  E E E  E  E E E
|---------------------|---------------------|
|---------------------|---------------------|
|-12s11-----11s12-----|-12s11-----11s12-----|
|---------------------|---------------------|
|-10s=9------9s10-----|-10s=9------9s10-----|
|-------0-0-------0-0-|-------0-0-------0-0-|


   E  E  E  E  E  E  E  E    E  E  E  E  E  E  E  E
|-------------------------|--------------------------|
|-------------------------|--------------------------|
|-------------------------|--------------------------|
|-12-12-12-12-12-12-12-12-|-12-12-12-12-12-12-12-12--|
|--9--9--9--9--9--9--9--9-|--9--9--9--9--9--9--9--9--|
|--9--9--9--9--9--9--9--9-|--9--9--9--9--9--9--9--9--|
|
|  E  E  E  E  E  E  E  E    E  E  E  E  E  E  E  E
|-------------------------|--------------------------|
|-------------------------|--------------------------|
|--7--7--7--7--7--7--7--7-|--7--7--7--7--7--7--7--7--|
|-------------------------|--------------------------|
|--5--5--5--5--5--5--5--5-|--5--5--5--5--5--5--5--5--|
|-------------------------|--------------------------|


   E  E E E E  E E E    E E E E E E E E
|--------------------|------------------|
|--------------------|------------------|
|--------------------|------------------|
|--------------------|------------------|
|--7--7-7-7-7--7-7-7-|--7-7-7-7-7-7-7-7-|
|--7--7-7-7-7--7-7-7-|--7-7-7-7-7-7-7-7-|
|
|  E  E E E E  E E E    E E E E E E E E
|--------------------|------------------|
|--------------------|------------------|
|-12s11-----9s11-----|-11s9-----9s7-----|
|--------------------|------------------|
|-10s=9-----7s=9-----|--9s7-----7s5-----|
|-------x-x------x-x-|------x-x-----x-x-|


                                    Q=130
  E E E E E E E E   E E E E E E E E   W          +W
|-----------------|-----------------|----------|--------|
|-----------------|-----------------|----------|--------|
|-----------------|-----------------|-2--------|-(2)----|
|-----------------|-----------------|-0--------|-(0)----|
|-5-5-5-5-5-5-5-5-|-5-----5-----5---|-0--------|-(0)----|
|-5-5-5-5-5-5-5-5-|-4-4-4-4-4-4-4-4-|-0--------|-(0)----|
|
| W                 W                 W          +W
|-----------------|-----------------|----------|--------|
|-3---------------|-3---------------|----------|--------|
|-4---------------|-2---------------|----------|--------|
|-5---------------|-4---------------|-0--------|-(0)----|
|-----------------|-----------------|-0--------|-(0)----|
|-----------------|-----------------|-0--------|-(0)----|


 I, Robot
 3/4
  H.          W          W          W
|-----------|----------|----------|-------------|
|-----------|----------|----------|-------------|
|-2---------|----------|----------|-------------|
|-0---------|----------|----------|-------------|
|-0---------|----------|----------|-------------|
|-0---------|----------|----------|-------------|
|
| Gtr III
| Q   Q  Q    Q  Q  Q    Q  Q  Q    E E E E E E
|-3---------|-3--------|-3--------|-3-5-3-5-3-5-|
|-----1-----|----1-----|----1-----|-------------|
|--------0--|-------0--|-------0--|-------------|
|-3---------|-3--------|-3--------|-0---0---0---|
|-----------|----------|----------|-------------|
|-----------|----------|----------|-------------|


  Q   Q   Q     Q   Q   Q     Q   Q   Q    W
|----10--10--|-10--10--10--|-10--10--10--|--------------|
|------------|-------------|-------------|--------------|
|------------|-------------|-------------|--------------|
|------------|-------------|-------------|--------------|
|------------|-------------|-------------|--------------|
|------------|-------------|-------------|--------------|
|
| Q   Q   Q     Q   Q   Q     Q   Q   Q    E E E E E E
|-3----------|--3----------|--3----------|-3-5-3-5-3-5--|
|-----1------|------1------|------1------|--------------|
|---------0--|----------0--|----------0--|--------------|
|-3----------|--3----------|--3----------|-0---0---0----|
|------------|-------------|-------------|--------------|
|------------|-------------|-------------|--------------|


  Q  Q  Q    Q  Q  Q    Q  Q  Q    E E E E E E
|-3--------|-3--------|-3--------|-3-5-3-5-3-5--||
|----1-----|----1-----|----1-----|--------------||
|-------0--|-------0--|-------0--|--------------||
|-3--------|-3--------|-3--------|-0---0---0----||
|----------|----------|----------|--------------||
|----------|----------|----------|--------------||


 Outro
  Gtrs III, IV
  Q  Q  Q    Q  Q  Q    Q  Q  Q    E E E E E E
|-3--------|-3--------|-3--------|-3-5-3-5-3-5--|
|----1-----|----1-----|----1-----|--------------|
|-------0--|-------0--|-------0--|--------------|
|-3--------|-3--------|-3--------|-0---0---0----|
|----------|----------|----------|--------------|
|----------|----------|----------|--------------|


  Q  Q  Q    Q  Q  Q    Q  Q  Q    E E E E E E
|-3--------|-3--------|-3--------|-3-5-3-5-3-5--|
|----1-----|----1-----|----1-----|--------------|
|-------0--|-------0--|-------0--|--------------|
|-3--------|-3--------|-3--------|-0---0---0----|
|----------|----------|----------|--------------|
|----------|----------|----------|--------------|


  Q  Q  Q    Q  Q  Q    Q  Q  Q    E E E E E E
|-3--------|-3--------|-3--------|-3-5-3-5-3-5--|
|----1-----|----1-----|----1-----|--------------|
|-------0--|-------0--|-------0--|--------------|
|-3--------|-3--------|-3--------|-0---0---0----|
|----------|----------|----------|--------------|
|----------|----------|----------|--------------|


  Q  Q  Q    Q  Q  Q    Q  Q  Q    E E E E E E
|-3--------|-3--------|-3--------|-3-5-3-5-3-5--|
|----1-----|----1-----|----1-----|--------------|
|-------0--|-------0--|-------0--|--------------|
|-3--------|-3--------|-3--------|-0---0---0----|
|----------|----------|----------|--------------|
|----------|----------|----------|--------------|


  Q  Q  Q    Q  Q  Q    Q  Q  Q    E E E E E E
|-3--------|-3--------|-3--------|-3-5-3-5-3-5--|
|----1-----|----1-----|----1-----|--------------|
|-------0--|-------0--|-------0--|--------------|
|-3--------|-3--------|-3--------|-0---0---0----|
|----------|----------|----------|--------------|
|----------|----------|----------|--------------|


  Q  Q  Q    Q  Q  Q    Q  Q  Q    E E E E E E
|-3--------|-3--------|-3--------|-3-5-3-5-3-5--|
|----1-----|----1-----|----1-----|--------------|
|-------0--|-------0--|-------0--|--------------|
|-3--------|-3--------|-3--------|-0---0---0----|
|----------|----------|----------|--------------|
|----------|----------|----------|--------------|


  Q  Q  Q    Q  Q  Q    Q  Q  Q    E E E E E E
|-3--------|-3--------|-3--------|-3-5-3-5-3-5--|
|----1-----|----1-----|----1-----|--------------|
|-------0--|-------0--|-------0--|--------------|
|-3--------|-3--------|-3--------|-0---0---0----|
|----------|----------|----------|--------------|
|----------|----------|----------|--------------|


  Q  Q  Q    Q  Q  Q    Q  Q  Q    E E E E E E
|-3--------|-3--------|-3--------|-3-5-3-5-3-5--|
|----1-----|----1-----|----1-----|--------------|
|-------0--|-------0--|-------0--|--------------|
|-3--------|-3--------|-3--------|-0---0---0----|
|----------|----------|----------|--------------|
|----------|----------|----------|--------------|


   H.        +H.        +H.
|-(5)------|----------|--------*|
|----------|----------|--------*|
|----------|----------|--------*|
|--0-------|-(0)------|-(0)----*|
|----------|----------|--------*|
|----------|----------|--------*|



Duration Legend
---------------
W - whole; H - half; Q - quarter; E - 8th; S - 16th; T - 32nd; X - 64th; a - acciaccatura
+ - note tied to previous; . - note dotted; .. - note double dotted
Uncapitalized letters represent notes that are staccato (1/2 duration)
Irregular groupings are notated above the duration line
Duration letters will always appear directly above the note/fret number it represents the
duration for.  Duration letters with no fret number below them represent rests.  Multi-
bar rests are notated in the form Wxn, where n is the number of bars to rest for.  Low
melody durations appear below the staff

Tablature Legend
----------------
 h   - hammer-on
 p   - pull-off
 b   - bend
 pb  - pre-bend
 r   - bend release (if no number after the r, then release immediately)
 /\  - slide into or out of (from/to "nowhere")
 s   - legato slide
 S   - shift slide
<n> - natural harmonic
[n]  - artificial harmonic
n(n) - tapped harmonic
 ~   - vibrato
 tr  - trill
 T   - tap
 TP  - trem. picking
 PM  - palm muting
\n/  - tremolo bar dip; n = amount to dip
 \n  - tremolo bar down
 n/  - tremolo bar up
/n\  - tremolo bar inverted dip
 =   - hold bend; also acts as connecting device for hammers/pulls
 <> - volume swell (louder/softer)
 x   - on rhythm slash represents muted slash
 o   - on rhythm slash represents single note slash

Misc Legend
-----------
 |  - bar
||  - double bar
||o - repeat start
o|| - repeat end
*|  - double bar (ending)
 :  - bar (freetime)
 $  - Segno
 &  - Coda
Tempo markers - <E/E./Q/Q./H/H.> = BPM(8/16=s8/s16), where s8 = swing 8ths, s16 = swing 16ths

comments
We did not receive enough feedback on this tab! Please rate:
print report bad tab
1 2 3 4 5
I want to post or [tab]
guest
You may want to rate the tab now too:
select rating
Please do not post tabs as comments. Select "correction" instead!