Oops, an error
Loading. Please wait.

A Favor House Atlantic Tab

ver6
ver6
More versions @911Tabs.com
7,010 views 3 this week
2 commentsread comments
1 2 3 4 5
accurate
x 7
add to favorites launch autoscroll
font size
0
reset
Autoscroll
+/-
esc
set tempo
stop
WARNING: You are trying to view
                                    content from Ultimate-Guitar.com
                                    in an unauthorized application,
                                    which is prohibited.

                                    Please use an official Ultimate
                                    Guitar Tabs application for iPhone,
                                    iPad or Android to access legitimate
                                    chords, guitar, bass, and drum tabs
                                    from Ultimate-Guitar.com database.

                                    Type "ultimate guitar tabs" in Apple
                                    App Store's or Android Market's
                                    search to find the application.
#----------------------------------PLEASE NOTE---------------------------------#
#This file is the author's own work and represents their interpretation of the #
#song. You may only use this file for private study, scholarship, or research. #
#------------------------------------------------------------------------------##

                             A FAVOR HOUSE ATLANTIC
                        As recorded by Coheed and Cambria
           (From the 2003 Album IN KEEPING SECRETS OF SILENT EARTH: 3)

Words by Claudio Sanchez
Music by Coheed and Cambria
Transcribed by Nero15 + sprinklerthief

Gtr I (E A D G B E) - 'dist.'
Gtr II (E A D G B E) - 'dist.'
Gtr III (E A D G B E) - 'dist.'

 Intro
  Fast Rock Q=167
  C#5           AmajN.C.               C#5           AmajN.C.
 4/4
  Gtrs I, II
                             ~~~                                  ~~~
  E E E E E E E E   E E E E +Q   E E   E E E E E E E E   E E E E +Q   E E
|-----------------|------------------|-----------------|-------------------|
|-----------------|------------------|-----------------|-------------------|
|-----------------|---4-6------------|-----------------|---4-6-------------|
|-6-6-6-6-6-6---6-|-------4-(4)------|-6-6-6-6-6-6---6-|-------4-(4)-------|
|-4-4-4-4-4-4---0-|--------------7-6-|-4-4-4-4-4-4---0-|--------------7-6--|
|-----------------|------------------|-----------------|-------------------|


  C#5                   AmajN.C.
                                        ~~~
   E  E  E  E   E   E E E    E  E E E  +Q    E E
|-------------------------|----------------------||
|-------------------------|----------------------||
|-------------------------|-----4-6--------------||
|--6--6--6--6---6---6---6-|---------4--(4)-------||
|--4--4--4--4---4---4---0-|------------------7-6-||
|-------------------------|----------------------||
|
| Gtr III
|  E  E  E  E  +E   E E E   +Q.     Q.       E E
|-12-11----11-(11)------9-|-(9)------------------||
|-------12---------12-----|---------9------------||
|-------------------------|-----------------11-9-||
|-------------------------|----------------------||
|-------------------------|----------------------||
|-------------------------|----------------------||


 Verse
  A5                                      B5                 C#5
   E  E E E E E E E    E  E E E E E E E    E E E E E E E E    E E E E E E E E
|-------------------|-------------------|------------------|---------------|
|-------------------|-------------------|------------------|---------------|
|-------------------|-------------------|------------------|---------------|
|-------------------|-------------------|--4-4-4-4-4-4-4-4-|--6-6-6-6-6-6-6|
|--7--7-7-7-7-7-7-7-|--7--7-7-7-7-7-7-7-|--2-2-2-2-2-2-2-2-|--4-4-4-4-4-4-4|
|--5--5-5-5-5-5-5-5-|--5--5-5-5-5-5-5-5-|------------------|---------------|
|
|  ~~~~~~~~~~~~~~~~~~~~~~~~~~~~~~~~~~~~~~~~~~~~~~~~~~~~~~~~~~~~~
| +W                  +W                   W                  W
|-------------------|-------------------|------------------|---------------|
|-------------------|-------------------|------------------|---------------|
|-(9)---------------|-(9)---------------|-11---------------|-13------------|
|-------------------|-------------------|------------------|---------------|
|-------------------|-------------------|------------------|---------------|
|-------------------|-------------------|------------------|---------------|


  A5                                  B5                C#5
  E E E E E E E E   E E E E E E E E   E E E E E E E E   E E E E E E E E
|-----------------|-----------------|-----------------|------------------|
|-----------------|-----------------|-----------------|------------------|
|-----------------|-----------------|-----------------|------------------|
|-----------------|-----------------|-4-4-4-4-4-4-4-4-|-6-6-6-6-6-6-6-6--|
|-7-7-7-7-7-7-7-7-|-7-7-7-7-7-7-7-7-|-2-2-2-2-2-2-2-2-|-4-4-4-4-4-4-4-4--|
|-5-5-5-5-5-5-5-5-|-5-5-5-5-5-5-5-5-|-----------------|------------------|


  A5
  E E  E E E  E E E    E E E  E E E  E E
|-------------------|--------------------|
|-------------------|--------------------|
|-------------------|--------------------|
|-------------------|--------------------|
|-7-7--7-7-7--7-7-7-|--7-7-7--7-7-7--7-7-|
|-5-5--5-5-5--5-5-5-|--5-5-5--5-5-5--5-5-|
|
|     Gtr III
| Q    E E E  E E E    E E E  E E E  E E
|-------------------|--------------------|
|-----10p9---12p9---|-14p9---12p9---10p9-|
|------9---9------9-|------9------9------|
|-------------------|--------------------|
|-------------------|--------------------|
|-------------------|--------------------|


  B5                 C#5
   E E E E E E E E    E E E E E E E  E
|------------------|--------------------|
|------------------|--------------------|
|------------------|--------------------|
|--4-4-4-4-4-4-4-4-|--6-6-6-6-6-6-6--6--|
|--2-2-2-2-2-2-2-2-|--4-4-4-4-4-4-4--4--|
|------------------|--------------------|
|
|  Q   Q   E E E E    Q   E E E E Q
|------7-----------|--------------------|
|----------7---7---|------9-9---9-------|
|-/8---------8---8-|-/9---9-9-9---9\----|
|------------------|--------------------|
|------------------|--------------------|
|------------------|--------------------|


  A5
   E E  E E E  E E E    E E E  E E E  E  E
|--------------------|---------------------|
|--------------------|---------------------|
|--------------------|---------------------|
|--------------------|---------------------|
|--7-7--7-7-7--7-7-7-|--7-7-7--7-7-7--7--7-|
|--5-5--5-5-5--5-5-5-|--5-5-5--5-5-5--5--5-|
|
|  Q    E E E  E E E    E E E  E E E  Q
|--------------------|---------------------|
|------10p9---12p9---|-14p9---12p9---10\---|
|-/9--------9------9-|------9------9-------|
|--------------------|---------------------|
|--------------------|---------------------|
|--------------------|---------------------|


  B5                 C#5
   E E E E E E E E    E E E E E E E E
|------------------|-------------------||
|------------------|-------------------||
|------------------|-------------------||
|--4-4-4-4-4-4-4-4-|--6-6-6-6-6-6-6-6--||
|--2-2-2-2-2-2-2-2-|--4-4-4-4-4-4-4-4--||
|------------------|-------------------||
|
|  Q   Q   E E E E    Q   E E E E E E
|------7-----------|-------------------||
|----------7---7---|------9-----9---9--||
|-/8---------8---8-|-/9---9-9-9---9----||
|------------------|-------------------||
|------------------|-------------------||
|------------------|-------------------||


 Pre-Chorus
  A5
  PM--------------------------------|       PM--------------------------|
  E  E E  E E E E E   E E E E E E E E   E E E E E E E E   E E E E E E E E
|-------------------|-----------------|-----------------|-----------------||
|-------------------|-----------------|-----------------|-----------------||
|-------------------|-----------------|-----------------|-----------------||
|-------------------|-----------------|-----------------|-----------------||
|-7--7-7--7-7-7-7-7-|-7-7-7-7-7-7-7-7-|-7-7-7-7-7-7-7-7-|-7-7-7-7-7-7-7-7-||
|-5--5-5--5-5-5-5-5-|-5-5-5-5-5-5-5-5-|-5-5-5-5-5-5-5-5-|-5-5-5-5-5-5-5-5-||
|
| Q    H.             W                 W                 W
|-------------------|-----------------|-----------------|----------------||
|-9\----------------|-----------------|-----------------|----------------||
|-9\----------------|-----------------|-----------------|----------------||
|-------------------|-----------------|-----------------|----------------||
|-------------------|-----------------|-----------------|----------------||
|-------------------|-----------------|-----------------|----------------||


 Chorus
  $
  E5      A5        C#5       B5        E5      A5        C#5       B5
  Gtr II
      PM|     PM|         PM|     PM|       PM|     PM|         PM|     PM|
  E E E E E E E E    E  E E E E E E E   E E E E E E E E    E  E E E E E E E
|-----------------|-------------------|-----------------|------------------|
|-----------------|-------------------|-----------------|------------------|
|-----------------|-------------------|-----------------|------------------|
|-----------------|-------------------|-----------------|------------------|
|-2-2-----7-7-----|-11-11-----9-9-----|-2-2-----7-7-----|-11-11-----9-9----|
|-0-0-0-0-5-5-0-0-|--9--9-0-0-7-7-0-0-|-0-0-0-0-5-5-0-0-|--9--9-0-0-7-7-0-0|
|
| Gtr I
| E E Q   E E Q      E  E Q   E E Q     E E Q   E E Q      E  E Q   E E Q
|-4-4-----5-5-----|--7--7-----2-2-----|-4-4-----5-5-----|--7--7-----2-2----|
|-5-5-----5-5-----|--5--5-----5-5-----|-5-5-----5-5-----|--5--5-----5-5----|
|-----------------|-------------------|-----------------|------------------|
|-----------------|-------------------|-----------------|------------------|
|-----------------|-------------------|-----------------|------------------|
|-----------------|-------------------|-----------------|------------------|


  E5      A5        C#5       B5
      PM|     PM|         PM|     PM|
  E E E E E E E E    E  E E E E E E E
|-----------------|-------------------||
|-----------------|-------------------||
|-----------------|-------------------||
|-----------------|-------------------||
|-2-2-----7-7-----|-11-11-----9-9-----||
|-0-0-0-0-5-5-0-0-|--9--9-0-0-7-7-0-0-||
|
| E E Q   E E Q      E  E Q   E E Q
|-4-4-----5-5-----|--7--7-----2-2-----||
|-5-5-----5-5-----|--5--5-----5-5-----||
|-----------------|-------------------||
|-----------------|-------------------||
|-----------------|-------------------||
|-----------------|-------------------||


 Bridge
                                                                    To Coda
  A5
  Gtrs I, II
    PM----------------------------------------------------------|
  E E E E E E E E   E E E E E E E E   E E E E E E E E    E  E E E  Q   E E
|-----------------|-----------------|-----------------|-------------------||
|-----------------|-----------------|-----------------|-------------------||
|-----------------|-----------------|-----------------|-------------------||
|-----------------|-----------------|-----------------|-------------------||
|-7-7-7-7-7-7-7-7-|-7-7-7-7-7-7-7-7-|-7-7-7-7-7-7-7-7-|--7--7-7-7-12\-----||
|-5-5-5-5-5-5-5-5-|-5-5-5-5-5-5-5-5-|-5-5-5-5-5-5-5-5-|--5--5-5-5-12\--0-0||
|
| Gtr III
| W                 W                 W                 +W
|-4---------------|-----------------|-----------------|-------------------||
|-5---------------|-5---------------|-----------------|-------------------||
|-----------------|-6---------------|-----------------|-------------------||
|-----------------|-----------------|-----------------|-------------------||
|-----------------|-----------------|-7---------------|-(7)---------------||
|-----------------|-----------------|-5---------------|-(5)---------------||


 Pre-Verse
  C#5       Amaj7     A6      A5        C#5     Amaj7     A6      A5
  E E E E E E E E   E E E E E E E E   E E E E E E E E   E E E E E E E E
|-----------------|-----------------|-----------------|------------------|
|-----------------|-----------------|-----------------|------------------|
|-----------------|-----------------|-----------------|------------------|
|-6-6-6-6---6-6-6-|---4-4-4---2-2-2-|---6-6-6---6-6-6-|---4-4-4---2-2-2--|
|-4-4-4-4---0-0-0-|---0-0-0---0-0-0-|---4-4-4---0-0-0-|---0-0-0---0-0-0--|
|-----------------|-----------------|-----------------|------------------|


     C#5           Amaj7           A6       A5
   E  E  E  E   E   E   E  E    E  E E E  E E  E E
|----------------------------|---------------------||
|----------------------------|---------------------||
|----------------------------|---------------------||
|-----6--6--6-------6---6--6-|-----4-4-4----2--2-2-||
|-----4--4--4-------0---0--0-|-----0-0-0----0--0-0-||
|----------------------------|---------------------||
|
| Gtr III
|  E  E  E  E  +E   E  +E  E   +Q.     Q.      E E
|-12-11----11-(11)---------9-|-(9)-----------------||
|-------12---------12-(12)---|---------9-----------||
|----------------------------|----------------11-9-||
|----------------------------|---------------------||
|----------------------------|---------------------||
|----------------------------|---------------------||


Bridge
  &
  E5                                    A5                        E/G#
  Gtrs I, II
  E E E E E E E E   E E E E  E  E E E   E E E E E E E E   E E E E  E  E E E
|-----------------|-------------------|-----------------|------------------|
|-----------------|-------------------|-----------------|------------------|
|-----------------|-------------------|-----------------|------------------|
|-----------------|-------------------|-----------------|------------------|
|-2-2-2-2-2-2-2-2-|-2-2-2-2--2--2-2-2-|-7-7-7-7-7-7-7-7-|-7-7-7-7--7--7-7-7|
|-0-0-0-0-0-0-0-0-|-0-0-0-0--0--0-0-0-|-5-5-5-5-5-5-5-5-|-5-5-5-5--4--4-4-4|
|
| Gtr III
| W                 H       +E  E E E   H       H         H       +E  E E E
|-----------------|-------------------|-5-------5-------|-5-------(5)-7-7--|
|-9---------------|-9-------(9)-9-9---|-5-------5-------|-5-------(5)-5-5--|
|-9---------------|-9-------(9)-9-9---|-6-------6-------|-6-------(6)-6-6--|
|-9---------------|-9-------(9)-9-9---|-7-------7-------|-7-------(7)-----7|
|-7---------------|-7-------(7)-------|-----------------|-----------------0|
|-----------------|-------------------|-----------------|------------------|


  E5                                    A5                        B5
  E E E E E E E E   E E E E  E  E E E   E E E E E E E E   E E E E  E  E E E
|-----------------|-------------------|-----------------|------------------|
|-----------------|-------------------|-----------------|------------------|
|-----------------|-------------------|-----------------|------------------|
|-----------------|-------------------|-----------------|------------------|
|-2-2-2-2-2-2-2-2-|-2-2-2-2--2--2-2-2-|-7-7-7-7-7-7-7-7-|-7-7-7-7-/9--9-9--|
|-0-0-0-0-0-0-0-0-|-0-0-0-0--0--0-0-0-|-5-5-5-5-5-5-5-5-|-5-5-5-5-----7-7-0|
|
| H       H         H       +E  E E E   H       H         H       +E  E E E
|-----------------|-------------------|-5-------5-------|-5-------(5)-5-5--|
|-9-------9-------|-9-------(9)-9-9---|-5-------5-------|-5-------(5)-5-5--|
|-9-------9-------|-9-------(9)-9-9---|-6-------6-------|-6-------(6)-6-6--|
|-9-------9-------|-9-------(9)-9-9---|-7-------7-------|-7-------(7)-----7|
|-7-------7-------|-7-------(7)-------|-----------------|-----------------0|
|-----------------|-------------------|-----------------|------------------|


  F#5                                 A5
  E E E E E E E E   E E E E E E E E   E E E E E E E E   E E E E  E  E E E
|-----------------|-----------------|-----------------|--------------------|
|-----------------|-----------------|-----------------|--------------------|
|-----------------|-----------------|-----------------|--------------------|
|-----------------|-----------------|-----------------|--------------------|
|-4-4-4-4-4-4-4-4-|-4-4-4-4-4-4-4-4-|-7-7-7-7-7-7-7-7-|-7-7-7-7--7--7-7-7--|
|-2-2-2-2-2-2-2-2-|-2-2-2-2-2-2-2-2-|-5-5-5-5-5-5-5-5-|-5-5-5-5--5--5-5-5--|
|
| H       H         Q   E E E E E E   H       H         H       +E  E E E
|-2-------2-------|-2---------------|-7-------7-------|-7-------(7)-7-7----|
|-2-------2-------|-2---2-2-2-2-2-2-|-5-------5-------|-5-------(5)-5-5----|
|-2-------2-------|-2---2-2-2-2-2-2-|-6-------6-------|-6-------(6)-6-6----|
|-4-------4-------|-4---4-4-4-4-4-4-|-7-------7-------|-7-------(7)-----7--|
|-----------------|-----------------|-----------------|-----------------0--|
|-----------------|-----------------|-----------------|--------------------|


  E/A                                   A5
  E E E E E E E E    E  E E E E E E E   E E E E E E E E   E E E E E E E E
|-----------------|-------------------|-----------------|-----------------||
|-----------------|-------------------|-----------------|-----------------||
|-----------------|-------------------|-----------------|-----------------||
|-6-6-6-6-6-6-6-6-|--6--6-6-6-6-6-6-6-|-7-7-7-7-7-7-7-7-|-7-7-7-7-7-7-7---||
|-7-7-7-7-7-7-7-7-|--7--7-7-7-7-7-7-7-|-7-7-7-7-7-7-7-7-|-7-7-7-7-7-7-7-0-||
|-5-5-5-5-5-5-5-5-|--5--5-5-5-5-5-5-5-|-5-5-5-5-5-5-5-5-|-5-5-5-5-5-5-5-0-||
|
| H       H         +Q    E E E E E E   E E E E E E E E   E E E E E E E E
|-5-------5-------|-(5)---5-----5-----|-7-----7-----7---|---7-----7-------||
|-5-------5-------|-(5)-----5-----5---|---5-----5-----5-|-----5-----5-----||
|-6-------6-------|-(6)-------6-----6-|-----6-----6-----|-6-----6-----6---||
|-7-------7-------|-(7)---------------|-----------------|-----------------||
|-----------------|-------------------|-----------------|-----------------||
|-----------------|-------------------|-----------------|-----------------||


Breakdown
  E5                                   A5                         E/G#
  E E  E E E E E E   E E E E E E E E   E E  E E E E E E   E E E E E E E E
|------------------|-----------------|------------------|------------------|
|------------------|-----------------|------------------|------------------|
|------------------|-----------------|------------------|------------------|
|------------------|-----------------|------------------|------------------|
|-2-2--2-2-2-2-2-2-|-2-2-2-2-2-2-2-2-|-7-7--7-7-7-7-7-7-|-7-7-7-7-7-7-7-7--|
|-0-0--0-0-0-0-0-0-|-0-0-0-0-0-0-0-0-|-5-5--5-5-5-5-5-5-|-5-5-5-5-4-4-4-4--|
|
| E E  E E E E E E   E E E E E E E E   E E  E E E E E E   E E E E E E E E
|------------------|-----------------|------------------|------------------|
|-0-9-10-0-7-9-0-5-|-7-0-4-5-0-5-7-0-|-0-9-10-0-7-9-0-5-|-7-0-4-5-0-5-7-0--|
|------------------|-----------------|------------------|------------------|
|------------------|-----------------|------------------|------------------|
|------------------|-----------------|------------------|------------------|
|------------------|-----------------|------------------|------------------|


  E5                                   A5                         B5
  E E  E E E E E E   E E E E E E E E   E E  E E E E E E   E E E E  E E E E
|------------------|-----------------|------------------|------------------|
|------------------|-----------------|------------------|------------------|
|------------------|-----------------|------------------|------------------|
|------------------|-----------------|------------------|------------------|
|-2-2--2-2-2-2-2-2-|-2-2-2-2-2-2-2-2-|-7-7--7-7-7-7-7-7-|-7-7-7-7-/9-9-9---|
|-0-0--0-0-0-0-0-0-|-0-0-0-0-0-0-0-0-|-5-5--5-5-5-5-5-5-|-5-5-5-5----7-7-0-|
|
| E E  E E E E E E   E E E E E E E E   E E  E E E E E E   E E E E  E E E E
|------------------|-----------------|------------------|------------------|
|-0-9-10-0-7-9-0-5-|-7-0-4-5-0-5-7-0-|-0-9-10-0-7-9-0-5-|-7-0-4-5--0-5-7-0-|
|------------------|-----------------|------------------|------------------|
|------------------|-----------------|------------------|------------------|
|------------------|-----------------|------------------|------------------|
|------------------|-----------------|------------------|------------------|


  F#5
  E E  E E E E  E E    E E  E E E E  E E
|-------------------|--------------------|
|-------------------|--------------------|
|-------------------|--------------------|
|-------------------|--------------------|
|-4-4--4-4-4-4--4-4-|--4-4--4-4-4-4--4-4-|
|-2-2--2-2-2-2--2-2-|--2-2--2-2-2-2--2-2-|
|
| E E  E E E E  E E    E E  E E E E  E E
|-------------------|--------------------|
|-9-0-10-0-9-0-14-0-|-12-0-10-0-9-0-10-0-|
|-------------------|--------------------|
|-------------------|--------------------|
|-------------------|--------------------|
|-------------------|--------------------|


  A5
  E E  E E E E  E E    E E  E E E E  E E
|-------------------|---------------------|
|-------------------|---------------------|
|-------------------|---------------------|
|-------------------|---------------------|
|-7-7--7-7-7-7--7-7-|--7-7--7-7-7-7--7-7--|
|-5-5--5-5-5-5--5-5-|--5-5--5-5-5-5--5-5--|
|
| E E  E E E E  E E    E E  E E E E  E E
|-------------------|---------------------|
|-9-0-10-0-9-0-14-0-|-12-0-10-0-9-0-10-0--|
|-------------------|---------------------|
|-------------------|---------------------|
|-------------------|---------------------|
|-------------------|---------------------|


  E/A                                  A5
  E E  E E E E E E   E E E E E E E E   E E  E E E E E E   E E E E E E E E
|------------------|-----------------|------------------|------------------||
|------------------|-----------------|------------------|------------------||
|------------------|-----------------|------------------|------------------||
|-6-6--6-6-6-6-6-6-|-6-6-6-6-6-6-6-6-|-7-7--7-7-7-7-7-7-|-7-7-7-7-7-7-7----||
|-7-7--7-7-7-7-7-7-|-7-7-7-7-7-7-7-7-|-7-7--7-7-7-7-7-7-|-7-7-7-7-7-7-7-0--||
|-5-5--5-5-5-5-5-5-|-5-5-5-5-5-5-5-5-|-5-5--5-5-5-5-5-5-|-5-5-5-5-5-5-5-0--||
|
| E E  E E E E E E   E E E E E E E E   E E  E E E E E E   E E E E E E E E
|------------------|-----------------|------------------|------------------||
|-0-9-10-0-7-9-0-5-|-7-0-4-5-0-5-7-0-|-0-9-10-0-7-9-0-5-|-7-0-4-5-0-5-7-0--||
|------------------|-----------------|------------------|------------------||
|------------------|-----------------|------------------|------------------||
|------------------|-----------------|------------------|------------------||
|------------------|-----------------|------------------|------------------||


 Out-Chorus
  E5
   E  E E E  E E  E E   E E E E E E  E E
|---------------------|------------------|
|---------------------|------------------|
|---------------------|------------------|
|---------------------|------------------|
|--2--2-2-2--2-2--2-2-|-2-2-2-2-2-2--2-2-|
|--0--0-0-0--0-0--0-0-|-0-0-0-0-0-0--0-0-|
|
|  TP     TP      TP    TP  TP  TP   TP
|  Q.     Q.      Q     Q   Q   Q    Q
|---------------------|------------------|
|-10------9-----------|------------------|
|----------------11---|-9---8---9---11---|
|---------------------|------------------|
|---------------------|------------------|
|---------------------|------------------|


  A5                            E/G#
   E  E E E  E E  E E   E E E E E E  E E
|---------------------|-------------------|
|---------------------|-------------------|
|---------------------|-------------------|
|---------------------|-------------------|
|--7--7-7-7--7-7--7-7-|-7-7-7-7-7-7--7-7--|
|--5--5-5-5--5-5--5-5-|-5-5-5-5-4-4--4-4--|
|
|  TP     TP      TP    TP  TP  TP   TP
|  Q.     Q.      Q     Q   Q   Q    Q
|---------------------|-------------------|
|-10------9-----------|-------------------|
|----------------11---|-9---8---9---11----|
|---------------------|-------------------|
|---------------------|-------------------|
|---------------------|-------------------|


  E5
   E  E E E  E E  E E   E E E E E E  E E
|---------------------|------------------|
|---------------------|------------------|
|---------------------|------------------|
|---------------------|------------------|
|--2--2-2-2--2-2--2-2-|-2-2-2-2-2-2--2-2-|
|--0--0-0-0--0-0--0-0-|-0-0-0-0-0-0--0-0-|
|
|  TP     TP      TP    TP  TP  TP   TP
|  Q.     Q.      Q     Q   Q   Q    Q
|---------------------|------------------|
|-10------9-----------|------------------|
|----------------11---|-9---8---9---11---|
|---------------------|------------------|
|---------------------|------------------|
|---------------------|------------------|


  A5                           B5
  E  E E E  E E E E    E E E E  E E E E
|-------------------|--------------------|
|-------------------|--------------------|
|-------------------|--------------------|
|-------------------|--------------------|
|-7--7-7-7--7-7-7-7-|--7-7-7-7-/9-9-9----|
|-5--5-5-5--5-5-5-5-|--5-5-5-5----7-7-0--|
|
| TP     TP     TP     TP  TP   TP  TP
| Q.     Q.     Q      Q   Q    Q   Q
|-------------------|--------------------|
|-------------------|--------------------|
|-9------8------9---|-11---9----8---9----|
|-------------------|--------------------|
|-------------------|--------------------|
|-------------------|--------------------|


  F#5
  E E  E E  E E  E E    E E  E E E E  E E
|--------------------|--------------------|
|--------------------|--------------------|
|--------------------|--------------------|
|--------------------|--------------------|
|-4-4--4-4--4-4--4-4-|--4-4--4-4-4-4--4-4-|
|-2-2--2-2--2-2--2-2-|--2-2--2-2-2-2--2-2-|
|
| E E  E E  E E  E E    E E  E E E E  E E
|--------------------|--------------------|
|-9-0-10-0-12-0-14-0-|-12-0-10-0-9-0-10-0-|
|--------------------|--------------------|
|--------------------|--------------------|
|--------------------|--------------------|
|--------------------|--------------------|


  A5
  E E  E E  E E  E E    E E  E E E E  E E
|--------------------|---------------------|
|--------------------|---------------------|
|--------------------|---------------------|
|--------------------|---------------------|
|-7-7--7-7--7-7--7-7-|--7-7--7-7-7-7--7-7--|
|-5-5--5-5--5-5--5-5-|--5-5--5-5-5-5--5-5--|
|
| E E  E E  E E  E E    E E  E E E E  E E
|--------------------|---------------------|
|-9-0-10-0-12-0-14-0-|-12-0-10-0-9-0-10-0--|
|--------------------|---------------------|
|--------------------|---------------------|
|--------------------|---------------------|
|--------------------|---------------------|


  E/A                                  Asus2
  E E  E E E E E E   E E E E E E E E   W          +W
|------------------|-----------------|----------|--------||
|------------------|-----------------|----------|--------||
|------------------|-----------------|----------|--------||
|-6-6--6-6-6-6-6-6-|-6-6-6-6-6-6-6-6-|-9--------|-(9)----||
|-7-7--7-7-7-7-7-7-|-7-7-7-7-7-7-7-7-|-7--------|-(7)----||
|-5-5--5-5-5-5-5-5-|-5-5-5-5-5-5-5-5-|-5--------|-(5)----||
|
| E E  E E E E E E   E E E E E E E E   W          +W
|------------------|-----------------|----------|--------||
|-0-9-10-0-7-9-0-5-|-7-0-4-5-0-5-7-0-|----------|--------||
|------------------|-----------------|----------|--------||
|------------------|-----------------|-9--------|-(9)----||
|------------------|-----------------|-7--------|-(7)----||
|------------------|-----------------|-5--------|-(5)----||


 Outro
  N.C.               E5
   ~~~~~~~~~
   Q.    Q.    Q     W          +W           +W
|------------------|----------|------------|--------*|
|------------------|----------|------------|--------*|
|------------------|----------|------------|--------*|
|------------------|----------|------------|--------*|
|--7-----6---------|-2--------|-(2)--------|-(2)----*|
|--------------7\--|-0--------|-(0)--------|-(0)----*|
|
|  Q.    Q.    Q     W          +W           +W
|-12----11---------|----------|------------|--------*|
|-------------12\--|----------|------------|--------*|
|------------------|----------|------------|--------*|
|------------------|----------|------------|--------*|
|------------------|-2--------|-(2)--------|-(2)----*|
|------------------|-0--------|-(0)--------|-(0)----*|
comments
print report bad tab
2 comments total.
0 reply
boba899 wrote on July 21 2006, 04:30 pm

Straight off of the Cobalt powertab

0 reply
incubosity wrote on November 21 2013, 01:11 pm

From a powertab or not...this is way better, more accurate, and more complete than the version with waaaaaay too many 5 star votes.

I want to post or [tab]
guest
You may want to rate the tab now too:
select rating
Please do not post tabs as comments. Select "correction" instead!