Oops, an error
Loading. Please wait.

A Rush And A Push And The Land Is Ours Tab

ver1
ver1

Whole song

Interactive

More versions @911Tabs.com
4,119 views 3 this week
1 commentread comment
1 2 3 4 5
excellent!
x 4
add to favorites launch autoscroll
font size
0
reset
Autoscroll
+/-
esc
set tempo
stop
Difficulty
intermediate
WARNING: You are trying to view
                                    content from Ultimate-Guitar.com
                                    in an unauthorized application,
                                    which is prohibited.

                                    Please use an official Ultimate
                                    Guitar Tabs application for iPhone,
                                    iPad or Android to access legitimate
                                    chords, guitar, bass, and drum tabs
                                    from Ultimate-Guitar.com database.

                                    Type "ultimate guitar tabs" in Apple
                                    App Store's or Android Market's
                                    search to find the application.
A Rush and A Push and The Land is Ours
Tabbed by: Richard Doud

I split the guitar up into two sections rather than stacking them on top of each other 
I figured it would be easier to learn a single part that way. Travis's part is halway 
the tab.

Claudio


E E E E E E E E E E E E E E E E
E||--------------0-----------|--------------------------|
B||--------1--------1--------|--------------1-----------|
G||-----2--------------2-----|--------2--------2-----2--|
D||--0--------0--------------|-----3-----3--------3-----|
A||-----------------------0--|--1-----------------------|
E||--------------------------|--------------------------|


E E E E E E E E E E E E E E E E
--------------------------|----------------------------|
--------------------------|----------------------------|
--------9-----9-----------|----------------------------|
-----7-----------7-----7--|--------10-----10-----------|
--5--------5--------5-----|-----8-------------8-----8--|
--------------------------|--6---------6---------6-----|


E E E E E E E E E E E E E E E E
--------------0-----------|--------------------------|
--------1--------1--------|--------------1-----------|
-----2--------------2-----|--------2--------2-----2--|
--0--------0--------------|-----3-----3--------3-----|
-----------------------0--|--1-----------------------|
--------------------------|--------------------------|


E E E E E E E E E E E E E E E E
--------------------------|----------------------------|
--------------------------|----------------------------|
--------9-----9-----------|----------------------------|
-----7-----------7-----7--|--------10-----10-----------|
--5--------5--------5-----|-----8-------------8-----8--|
--------------------------|--6---------6---------6-----|


E E E E E E E E E E E E E E E E
--------------0-----------|--------------------------|
--------1--------1--------|--------------1-----------|
-----2--------------2-----|--------2--------2-----2--|
--0--------0--------------|-----3-----3--------3-----|
-----------------------0--|--1-----------------------|
--------------------------|--------------------------|


E E E E E E E E E E E E E E E E
--------------------------|----------------------------|
--------------------------|----------------------------|
--------9-----9-----------|----------------------------|
-----7-----------7-----7--|--------10-----10-----------|
--5--------5--------5-----|-----8-------------8-----8--|
--------------------------|--6---------6---------6-----|


E E E E E E E E E E E E E E E E
--------------0-----------|--------------------------|
--------1--------1--------|--------------1-----------|
-----2--------------2-----|--------2--------2-----2--|
--0--------0--------------|-----3-----3--------3-----|
-----------------------0--|--1-----------------------|
--------------------------|--------------------------|


E E E E E E E E E E E E E E E E
--------------------------|----------------------------|
--------------------------|----------------------------|
--------9-----9-----------|----------------------------|
-----7-----------7-----7--|--------10-----10-----------|
--5--------5--------5-----|-----8-------------8-----8--|
--------------------------|--6---------6---------6-----|


E E E E E E E E E E E E E E E E
--------------------------|----------------------------|
--------------------------|----------------------------|
--------9-----9-----------|----------------------------|
-----7-----------7-----7--|--------10-----10-----------|
--5--------5--------5-----|-----8-------------8-----8--|
--------------------------|--6---------6---------6-----|


E E E E E E E E E E E E E E E E
--------------------------|----------------------------|
--------------------------|----------------------------|
--------9-----9-----------|----------------------------|
-----7-----------7-----7--|--------10-----10-----------|
--5--------5--------5-----|-----8-------------8-----8--|
--------------------------|--6---------6---------6-----|


E E E E E E E E E E E E E E E E
--------------0-----------|--------------------------|
--------1--------1--------|--------------1-----------|
-----2--------------2-----|--------2--------2-----2--|
--0--------0--------------|-----3-----3--------3-----|
-----------------------0--|--1-----------------------|
--------------------------|--------------------------|


E E E E E E E E E E E E E E E E
--------------------------|----------------------------|
--------------------------|----------------------------|
--------9-----9-----------|----------------------------|
-----7-----------7-----7--|--------10-----10-----------|
--5--------5--------5-----|-----8-------------8-----8--|
--------------------------|--6---------6---------6-----|


E E E E E E E E E E E E E E E E
--------------------------|----------------------------|
--------------------------|----------------------------|
--------9-----9-----------|----------------------------|
-----7-----------7-----7--|--------10-----10-----------|
--5--------5--------5-----|-----8-------------8-----8--|
--------------------------|--6---------6---------6-----|


E E E E E E E E E E E E E E E E
--------------------------|----------------------------|
--------------------------|----------------------------|
--------9-----9-----------|----------------------------|
-----7-----------7-----7--|--------10-----10-----------|
--5--------5--------5-----|-----8-------------8-----8--|
--------------------------|--6---------6---------6-----|


E E E E E E E E E E E E E E E E
--------------------------|--------------------------|
--------------6-----------|--------------6-----------|
--------8--------8-----8--|--------7--------7-----7--|
-----8--------------8-----|-----7--------------7-----|
--6--------6--------------|--5--------5--------------|
--------------------------|--------------------------|


E E E E E E E E E E E E Q Q E E E E E E E E
--------------------------|------------------------|--------------0-----------|
--------------6-----------|-----------6------------|--------1--------1--------|
--------8--------8-----8--|--------7---------------|-----2--------------2-----|
-----8--------------8-----|-----7------------------|--0--------0--------------|
--6--------6--------------|--5---------------------|-----------------------0--|
--------------------------|--------------6----8----|--------------------------|


E E E E E E E E E E E E E E E E
--------------------------|--------------------------|
--------------1-----------|--------------------------|
--------2--------2-----2--|--------9-----9-----------|
-----3-----3--------3-----|-----7-----------7-----7--|
--1-----------------------|--5--------5--------5-----|
--------------------------|--------------------------|


E E E E E E E E E E E E E E E E
----------------------------|--------------0-----------|
----------------------------|--------1--------1--------|
----------------------------|-----2--------------2-----|
--------10-----10-----------|--0--------0--------------|
-----8-------------8-----8--|-----------------------0--|
--6---------6---------6-----|--------------------------|


E E E E E E E E E E E E E E E E
--------------------------|--------------------------|
--------------1-----------|--------------------------|
--------2--------2-----2--|--------9-----9-----------|
-----3-----3--------3-----|-----7-----------7-----7--|
--1-----------------------|--5--------5--------5-----|
--------------------------|--------------------------|


E E E E E E E E E E E E E E E E
----------------------------|--------------------------|
----------------------------|--------------6-----------|
----------------------------|--------8--------8-----8--|
--------10-----10-----------|-----8--------------8-----|
-----8-------------8-----8--|--6--------6--------------|
--6---------6---------6-----|--------------------------|


E E E E E E E E E E E E E E E E E E E E Q Q
--------------------------|--------------------------|------------------------|
--------------6-----------|--------------6-----------|-----------6------------|
--------7--------7-----7--|--------8--------8-----8--|--------7---------------|
-----7--------------7-----|-----8--------------8-----|-----7------------------|
--5--------5--------------|--6--------6--------------|--5---------------------|
--------------------------|--------------------------|--------------6----8----|


E E E E E E E E E E E E E E E E
--------------0-----------|--------------------------|
--------1--------1--------|--------------1-----------|
-----2--------------2-----|--------2--------2-----2--|
--0--------0--------------|-----3-----3--------3-----|
-----------------------0--|--1-----------------------|
--------------------------|--------------------------|


E E E E E E E E E E E E E E E E
--------------------------|----------------------------|
--------------------------|----------------------------|
--------9-----9-----------|----------------------------|
-----7-----------7-----7--|--------10-----10-----------|
--5--------5--------5-----|-----8-------------8-----8--|
--------------------------|--6---------6---------6-----|


E E E E E E E E E E E E E E E E
--------------0-----------|--------------------------|
--------1--------1--------|--------------1-----------|
-----2--------------2-----|--------2--------2-----2--|
--0--------0--------------|-----3-----3--------3-----|
-----------------------0--|--1-----------------------|
--------------------------|--------------------------|


E E E E E E E E E E E E E E E E
--------------------------|----------------------------|
--------------------------|----------------------------|
--------9-----9-----------|----------------------------|
-----7-----------7-----7--|--------10-----10-----------|
--5--------5--------5-----|-----8-------------8-----8--|
--------------------------|--6---------6---------6-----|


E E E E E E E E E E E E E E E E
--------------------------|--------------------------|
--------------6-----------|--------------6-----------|
--------8--------8-----8--|--------7--------7-----7--|
-----8--------------8-----|-----7--------------7-----|
--6--------6--------------|--5--------5--------------|
--------------------------|--------------------------|


E E E E E E E E E E E E Q Q E E E E E E E E
--------------------------|------------------------|--------------0-----------|
--------------6-----------|-----------6------------|--------1--------1--------|
--------8--------8-----8--|--------7---------------|-----2--------------2-----|
-----8--------------8-----|-----7------------------|--0--------0--------------|
--6--------6--------------|--5---------------------|-----------------------0--|
--------------------------|--------------6----8----|--------------------------|


E E E E E E E E E E E E E E E E
--------------------------|--------------------------|
--------------1-----------|--------------------------|
--------2--------2-----2--|--------9-----9-----------|
-----3-----3--------3-----|-----7-----------7-----7--|
--1-----------------------|--5--------5--------5-----|
--------------------------|--------------------------|


E E E E E E E E E E E E E E E E
----------------------------|--------------0-----------|
----------------------------|--------1--------1--------|
----------------------------|-----2--------------2-----|
--------10-----10-----------|--0--------0--------------|
-----8-------------8-----8--|-----------------------0--|
--6---------6---------6-----|--------------------------|


E E E E E E E E E E E E E E E E
--------------------------|--------------------------|
--------------1-----------|--------------------------|
--------2--------2-----2--|--------9-----9-----------|
-----3-----3--------3-----|-----7-----------7-----7--|
--1-----------------------|--5--------5--------5-----|
--------------------------|--------------------------|


E E E E E E E E E E E E E E E E
----------------------------|--------------------------|
----------------------------|--------------6-----------|
----------------------------|--------8--------8-----8--|
--------10-----10-----------|-----8--------------8-----|
-----8-------------8-----8--|--6--------6--------------|
--6---------6---------6-----|--------------------------|


E E E E E E E E E E E E E E E E
--------------------------|--------------------------|
--------------6-----------|--------------6-----------|
--------7--------7-----7--|--------8--------8-----8--|
-----7--------------7-----|-----8--------------8-----|
--5--------5--------------|--6--------6--------------|
--------------------------|--------------------------|


E E E E E E E E E E E E E E E E
--------------------------|--------------------------|
--------------6-----------|--------------6-----------|
--------7--------7-----7--|--------8--------8-----8--|
-----7--------------7-----|-----8--------------8-----|
--5--------5--------------|--6--------6--------------|
--------------------------|--------------------------|


E E E E E E E E E E E E E E E E
--------------------------|--------------------------|
--------------6-----------|--------------6-----------|
--------7--------7-----7--|--------8--------8-----8--|
-----7--------------7-----|-----8--------------8-----|
--5--------5--------------|--6--------6--------------|
--------------------------|--------------------------|


E E E E E E E E E E E E E E E E E E E E Q Q
--------------------------|--------------------------|------------------------|
--------------6-----------|--------------6-----------|-----------6------------|
--------7--------7-----7--|--------8--------8-----8--|--------7---------------|
-----7--------------7-----|-----8--------------8-----|-----7------------------|
--5--------5--------------|--6--------6--------------|--5---------------------|
--------------------------|--------------------------|--------------6----8----|


E E E E E E E E E E E E E E E E
--------------0-----------|--------------------------|
--------1--------1--------|--------------1-----------|
-----2--------------2-----|--------2--------2-----2--|
--0--------0--------------|-----3-----3--------3-----|
-----------------------0--|--1-----------------------|
--------------------------|--------------------------|


E E E E E E E E E E E E E E E E
--------------------------|----------------------------|
--------------------------|----------------------------|
--------9-----9-----------|----------------------------|
-----7-----------7-----7--|--------10-----10-----------|
--5--------5--------5-----|-----8-------------8-----8--|
--------------------------|--6---------6---------6-----|


E E E E E E E E E E E E E E E E
--------------0-----------|--------------------------|
--------1--------1--------|--------------1-----------|
-----2--------------2-----|--------2--------2-----2--|
--0--------0--------------|-----3-----3--------3-----|
-----------------------0--|--1-----------------------|
--------------------------|--------------------------|


E E E E E E E E E E E E E E E E
--------------------------|----------------------------|
--------------------------|----------------------------|
--------9-----9-----------|----------------------------|
-----7-----------7-----7--|--------10-----10-----------|
--5--------5--------5-----|-----8-------------8-----8--|
--------------------------|--6---------6---------6-----|


E E E E E E E E W
--------------------------|-------------------||
--------------6--------6--|--5----------------||
--------7--------7--------|-------------------||
-----7-----7--------7-----|-------------------||
--5-----------------------|-------------------||
--------------------------|-------------------||


Travis


E E E E E E E E
E||-------|-------|-------|-------|--5-----5-----5-----------|
B||-------|-------|-------|-------|-----6-----6-----6--8--6--|
G||-------|-------|-------|-------|--------------------5-----|
D||-------|-------|-------|-------|--7-----------------------|
A||-------|-------|-------|-------|--------------------------|
E||-------|-------|-------|-------|--------------------------|


E E E E E E Q E E E E E E E E E E E E E E Q
--5-----5-----5----------|--5-----5-----5-----------|--5-----5-----5----------|
-----6-----6-----6--5----|-----6-----6-----6--8--6--|-----6-----6-----6--5----|
--------------------5----|--------------------5-----|--------------------5----|
--7----------------------|--7-----------------------|--7----------------------|
-------------------------|--------------------------|-------------------------|
-------------------------|--------------------------|-------------------------|


E E E E E E E E E E E E E E Q E E E E E E E E
--5-----5-----5-----------|--5-----5-----5----------|--5-----5-----5-----------|
-----6-----6-----6--8--6--|-----6-----6-----6--5----|-----6-----6-----6--8--6--|
--------------------5-----|--------------------5----|--------------------5-----|
--7-----------------------|--7----------------------|--7-----------------------|
--------------------------|-------------------------|--------------------------|
--------------------------|-------------------------|--------------------------|


E E E E E E Q E E E E E E E E E E E E E E Q
--5-----5-----5----------|--5-----5-----5-----------|--5-----5-----5----------|
-----6-----6-----6--5----|-----6-----6-----6--8--6--|-----6-----6-----6--5----|
--------------------5----|--------------------5-----|--------------------5----|
--7----------------------|--7-----------------------|--7----------------------|
-------------------------|--------------------------|-------------------------|
-------------------------|--------------------------|-------------------------|


E E E E E E E E E E E E E E Q
--5-----5-----5-----------|--5-----5-----5----------|
-----6-----6-----6--8--6--|-----6-----6-----6--5----|
--------------------5-----|--------------------5----|
--7-----------------------|--7----------------------|
--------------------------|-------------------------|
--------------------------|-------------------------|


Q Q Q E E Q Q H
--(10)----(10)----(10)----(10)--(12)--|--(13)----(13)----(12)--------|
--------------------------------------|------------------------------|
--------------------------------------|------------------------------|
--------------------------------------|------------------------------|
--------------------------------------|------------------------------|
--------------------------------------|------------------------------|


Q Q Q E E Q Q H
--(10)----(10)----(10)----(10)--(12)--|--(13)----(13)----(12)--------|
--------------------------------------|------------------------------|
--------------------------------------|------------------------------|
--------------------------------------|------------------------------|
--------------------------------------|------------------------------|
--------------------------------------|------------------------------|


E E E E E E E E E E E E E E Q E E E E E E E E
--5-----5-----5-----------|--5-----5-----5----------|--5-----5-----5-----------|
-----6-----6-----6--8--6--|-----6-----6-----6--5----|-----6-----6-----6--8--6--|
--------------------5-----|--------------------5----|--------------------5-----|
--7-----------------------|--7----------------------|--7-----------------------|
--------------------------|-------------------------|--------------------------|
--------------------------|-------------------------|--------------------------|


E E E E E E Q Q Q Q E E
--5-----5-----5----------|--(10)----(10)----(10)----(10)--(12)--|
-----6-----6-----6--5----|--------------------------------------|
--------------------5----|--------------------------------------|
--7----------------------|--------------------------------------|
-------------------------|--------------------------------------|
-------------------------|--------------------------------------|


Q Q H Q Q Q E E
--(13)----(13)----(12)--------|--(10)----(10)----(10)----(10)--(12)--|
------------------------------|--------------------------------------|
------------------------------|--------------------------------------|
------------------------------|--------------------------------------|
------------------------------|--------------------------------------|
------------------------------|--------------------------------------|


Q Q H E E E E S S E S S E
--(13)----(13)----(12)--------|------------------------------|
------------------------------|------------------------------|
------------------------------|--3-----3-----3p-0----3p-0----|
------------------------------|-----5-----5-------5-------5--|
------------------------------|--6-----6---------------------|
------------------------------|------------------------------|


Q Q Q Q E E E E S S E S S E Q Q Q Q
----------------------|------------------------------|----------------------|
----------------------|------------------------------|----------------------|
----------------------|--3-----3-----3p-0----3p-0----|----------------------|
--7----7----5----3----|-----5-----5-------5-------5--|--7----7----5----3----|
----------------------|--6-----6---------------------|----------------------|
----------------------|------------------------------|----------------------|


Q Q Q E E Q Q Q S S E Q Q Q E E
-----------------------|--------------------------|-----------------------|
-----------------------|--------------------------|-----------------------|
-----------------------|--------------------------|-----------------------|
--------------------5--|--------------------------|--------------------5--|
--5---------5----8-----|--1---------1----1h-3p-0--|--5---------5----8-----|
-------5---------------|-------1------------------|-------5---------------|


Q Q Q S S E Q Q Q E E Q Q Q S S E
--------------------------|-----------------------|--------------------------|
--------------------------|-----------------------|--------------------------|
--------------------------|-----------------------|--------------------------|
--------------------------|--------------------5--|--------------------------|
--1---------1----1h-3p-0--|--5---------5----8-----|--1---------1----1h-3p-0--|
-------1------------------|-------5---------------|-------1------------------|


Q Q Q E E Q Q Q S S E
-----------------------|--------------------------|
-----------------------|--------------------------|
-----------------------|--------------------------|
--------------------5--|--------------------------|
--5---------5----8-----|--1---------1----1h-3p-0--|
-------5---------------|-------1------------------|


E E E E S S E S S E Q Q Q Q
------------------------------|----------------------|
------------------------------|----------------------|
--3-----3-----3p-0----3p-0----|----------------------|
-----5-----5-------5-------5--|--7----7----5----3----|
--6-----6---------------------|----------------------|
------------------------------|----------------------|


E E E E S S E S S E Q Q Q Q Q Q Q E E
------------------------------|----------------------|-----------------------|
------------------------------|----------------------|-----------------------|
--3-----3-----3p-0----3p-0----|----------------------|-----------------------|
-----5-----5-------5-------5--|--7----7----5----3----|--------------------5--|
--6-----6---------------------|----------------------|--5---------5----8-----|
------------------------------|----------------------|-------5---------------|


Q Q Q S S E Q Q Q E E Q Q Q S S E
--------------------------|-----------------------|--------------------------|
--------------------------|-----------------------|--------------------------|
--------------------------|-----------------------|--------------------------|
--------------------------|--------------------5--|--------------------------|
--1---------1----1h-3p-0--|--5---------5----8-----|--1---------1----1h-3p-0--|
-------1------------------|-------5---------------|-------1------------------|


Q Q Q E E Q Q Q S S E Q Q Q E E
-----------------------|--------------------------|-----------------------|
-----------------------|--------------------------|-----------------------|
-----------------------|--------------------------|-----------------------|
--------------------5--|--------------------------|--------------------5--|
--5---------5----8-----|--1---------1----1h-3p-0--|--5---------5----8-----|
-------5---------------|-------1------------------|-------5---------------|


Q Q Q S S E E E E E S S E S S E
--------------------------|------------------------------|
--------------------------|------------------------------|
--------------------------|--3-----3-----3p-0----3p-0----|
--------------------------|-----5-----5-------5-------5--|
--1---------1----1h-3p-0--|--6-----6---------------------|
-------1------------------|------------------------------|


Q Q Q Q E E E E S S E S S E Q Q Q Q
----------------------|------------------------------|----------------------|
----------------------|------------------------------|----------------------|
----------------------|--3-----3-----3p-0----3p-0----|----------------------|
--7----7----5----3----|-----5-----5-------5-------5--|--7----7----5----3----|
----------------------|--6-----6---------------------|----------------------|
----------------------|------------------------------|----------------------|


Q Q Q E E Q Q Q S S E Q Q Q E E
-----------------------|--------------------------|-----------------------|
-----------------------|--------------------------|-----------------------|
-----------------------|--------------------------|-----------------------|
--------------------5--|--------------------------|--------------------5--|
--5---------5----8-----|--1---------1----1h-3p-0--|--5---------5----8-----|
-------5---------------|-------1------------------|-------5---------------|


Q Q Q S S E Q Q Q E E Q Q Q S S E
--------------------------|-----------------------|--------------------------|
--------------------------|-----------------------|--------------------------|
--------------------------|-----------------------|--------------------------|
--------------------------|--------------------5--|--------------------------|
--1---------1----1h-3p-0--|--5---------5----8-----|--1---------1----1h-3p-0--|
-------1------------------|-------5---------------|-------1------------------|


Q Q Q E E Q Q Q S S E
-----------------------|--------------------------|
-----------------------|--------------------------|
-----------------------|--------------------------|
--------------------5--|--------------------------|
--5---------5----8-----|--1---------1----1h-3p-0--|
-------5---------------|-------1------------------|


E E E E S S E S S E Q Q Q Q
------------------------------|----------------------|
------------------------------|----------------------|
--3-----3-----3p-0----3p-0----|----------------------|
-----5-----5-------5-------5--|--7----7----5----3----|
--6-----6---------------------|----------------------|
------------------------------|----------------------|


E E E E S S E S S E Q Q Q Q
------------------------------|----------------------|
------------------------------|----------------------|
--3-----3-----3p-0----3p-0----|----------------------|
-----5-----5-------5-------5--|--7----7----5----3----|
--6-----6---------------------|----------------------|
------------------------------|----------------------|


E E E E S S E S S E Q Q Q Q
------------------------------|----------------------|
------------------------------|----------------------|
--3-----3-----3p-0----3p-0----|----------------------|
-----5-----5-------5-------5--|--7----7----5----3----|
--6-----6---------------------|----------------------|
------------------------------|----------------------|


E E E E S S E S S E Q Q Q Q
------------------------------|----------------------|
------------------------------|----------------------|
--3-----3-----3p-0----3p-0----|----------------------|
-----5-----5-------5-------5--|--7----7----5----3----|
--6-----6---------------------|----------------------|
------------------------------|----------------------|


E E E E S S E S S E W Q Q Q E E
------------------------------|-------------------|-----------------------|
------------------------------|-------------------|-----------------------|
--3-----3-----3p-0----3p-0----|-------------------|-----------------------|
-----5-----5-------5-------5--|--7----------------|--------------------5--|
--6-----6---------------------|-------------------|--5---------5----8-----|
------------------------------|-------------------|-------5---------------|


Q Q Q S S E Q Q Q E E Q Q Q S S E
--------------------------|-----------------------|--------------------------|
--------------------------|-----------------------|--------------------------|
--------------------------|-----------------------|--------------------------|
--------------------------|--------------------5--|--------------------------|
--1---------1----1h-3p-0--|--5---------5----8-----|--1---------1----1h-3p-0--|
-------1------------------|-------5---------------|-------1------------------|


Q Q Q E E Q Q Q S S E Q Q Q E E
-----------------------|--------------------------|-----------------------|
-----------------------|--------------------------|-----------------------|
-----------------------|--------------------------|-----------------------|
--------------------5--|--------------------------|--------------------5--|
--5---------5----8-----|--1---------1----1h-3p-0--|--5---------5----8-----|
-------5---------------|-------1------------------|-------5---------------|


Q Q Q S S E
--------------------------|-------|-------||
--------------------------|-------|-------||
--------------------------|-------|-------||
--------------------------|-------|-------||
--1---------1----1h-3p-0--|-------|-------||
-------1------------------|-------|-------||

Duration Legend
---------------
W - whole
H - half
Q - quarter
E - 8th
S - 16th
T - 32nd
X - 64th
. - note dotted
|-n-| - n-tuplets


Tablature Legend
----------------
L - tied note
x - dead note
g - grace note
(n) - ghost note
> - accentuded note
NH - natural harmonic
AH - artificial harmonic
TH - tapped harmonic
SH - semi harmonic
PH - pitch harmonic
h - hammer on
p - pull off
b - bend
br - bendRelease
pb - preBend
pbr - preBendRelease
brb - bendReleaseBend
\n/ - tremolo bar dip
\n - tremolo bar dive
-/n - tremolo bar Release up
/n\ - tremolo bar inverted dip
/n - tremolo bar return
-\n - tremolo bar Release down
S - shift slide
s - legato slide
/ - slide into from below or out of upwards
\ - slide into from above or out of downwards
~ - vibrato
W - wide vibrato
tr - trill
TP - tremolo picking
T - tapping
S - slap
P - pop
< - fade in
^ - brush up
v - brush down
comments
print report bad tab
1 comment total.
0 reply
diceksox1809 wrote on July 16 2010, 01:08 pm

Wow did not take you very long, and its accurate. Great job.

I want to post or [tab]
guest
You may want to rate the tab now too:
select rating
Please do not post tabs as comments. Select "correction" instead!