Oops, an error
Loading. Please wait.

Cuts Marked In The March Of Men Tab

ver1
ver1

Whole song

More versions @911Tabs.com
13,140 views 27 this week
5 commentsread comments
1 2 3 4 5
accurate
x 13
add to favorites launch autoscroll
font size
0
reset
Autoscroll
+/-
esc
set tempo
stop
Contributor
WARNING: You are trying to view
                                    content from Ultimate-Guitar.com
                                    in an unauthorized application,
                                    which is prohibited.

                                    Please use an official Ultimate
                                    Guitar Tabs application for iPhone,
                                    iPad or Android to access legitimate
                                    chords, guitar, bass, and drum tabs
                                    from Ultimate-Guitar.com database.

                                    Type "ultimate guitar tabs" in Apple
                                    App Store's or Android Market's
                                    search to find the application.
--------------------------------------------------------------------------
           CUTS MARKED IN THE MARCH OF MEN - Coheed and Cambria
--------------------------------------------------------------------------
Tabbed by: joecool71
Email: mattconnellan@yahoo.com

Tuning: Standard

Here is the second tab in my Coheed series... Easier than the last one thank god. Have fun!

Verse
e|---------------------------------------------------|
B|---------------------------------------------------|
G|---------------------------------------------------|
D|---------------------------------------------------|
A|-44-44400-222---444-2-0---44-44400-222---444-2-0---|
E|-22----------44---------4-22----------44---------4-|

Verse lead 1
e|-----------------------------------|
B|------10h12p10\\----12-10----10----|
G|----9---------------------11----11-|
D|-11--------------------------------|
A|-----------------------------------|
E|-----------------------------------|

Verse lead 2 (played only during 3rd time through each verse passage)
e|----------------------16-14-----------------------------------------16-14-------------|
B|-------------15-14-15-------15-14h15p14--------------------15-14-15-------15-14h15p14-|
G|-14-13h14p13----------------------------16-14--14-13h14p13----------------------------|
D|--------------------------------------------------------------------------------------|
A|--------------------------------------------------------------------------------------|
E|--------------------------------------------------------------------------------------|

Prechorus
e|------------------------------|--|--------------|
B|------------------------------|--|--------------|
G|-------------999-777777777777-|--|--------------|
D|-2/4-4/6-6/7-999-777777777777-|X4|-444444444444-|
A|-2/4-4/6-6/7-777-555555555555-|--|-444444444444-|
E|-0/2-2/4-4/5------------------|--|-222222222222-|

Prechorus lead
e|------12--------------------------------------|
B|-9/10----12-10-9-10-9h10p9--------------------|
G|---------------------------11---9----9------9-|
D|----------------------------------11---9-11---|
A|----------------------------------------------|
E|----------------------------------------------|
                                  . .  . . .  .
Chorus (Chords)
e|---------------|
B|---------------|
G|-------------7-|
D|-9---7---5---7-|
A|-9---7---5---5-|
E|-7---5---3-----|

Chorus lead (starts during final bar of prechorus)
e|-0-5-0-9-0-10-0-9-0-7-9-0-5-0-9-0-10-0-9-0-7-9-0-5-0-9-0-12-0-10-0-9-10-0-5-0-9-0-10-0-9-0-7-9-----|
B|---------------------------------------------------------------------------------------------------|
G|---------------------------------------------------------------------------------------------------|
D|---------------------------------------------------------------------------------------------------|
A|---------------------------------------------------------------------------------------------------|
E|---------------------------------------------------------------------------------------------------|

Break
e|----------------------------|
B|----------------------------|
G|----------------------------|
D|-9-7-7-----9-----7-7----4---|
A|-9-7-7---7---4/5-----045-54-|
E|-7-5-5-5--------------------|

Bridge
e|--------------------------------------------------|
B|--------------------------------------------------|
G|--------------------------------------------------|
D|-7-7--7-7--9-9--9-9--12-12--12-12-14-11-11--11-11-|
A|-7-7--7-7--7-7--7-7--10-10--10-10-10-10-10--10-10-|
E|--------------------------------------------------|

Bridge lead 1
e|----------------|
B|-10--12--17--14-|
G|-9---11--16--14-|
D|----------------|
A|----------------|
E|----------------|

Bridge lead 2
e|----------------------|
B|----------------------|
G|-4-3-4-3----7---7-----|
D|---------4----9---9-7-|
A|----------------------|
E|----------------------|

Extra part!!!
e|------------------------------------------------|
B|------------------------------------------------|
G|-------------------------77-7-777-7-777-7-777-7-|
D|-77-77-77-77-77-77-77-77-77-7-777-7-777-7-777-7-|
A|-77-77-77-77-77-77-77-77-55-5-555-5-555-5-555-5-|
E|-55-55-55-55-55-55-55-55------------------------|


LYRICS AND RIFF PLACEMENT

[Verse w/ lead 1] x1
[Verse w/ lead 1 & 2] x4
Listen to the world out on the outside pressing in
Are you ready on my mark?
Fingers given names and with the last word they ascend
On the comfort of their well being... In arms
Into something they can't stop but wish that they could kill
You're the answer to their prayer
[Prechorus] x4
In the last hour stand
You'll notice the one that you had loved in dreams is here among the others
Chase it's you I want but if I can't have her
[Chorus w/ lead] x4
Then why should I spend any more time in a world that's going to end pretty soon?
I need you now more than I ever did
I'll hand myself over for you
This comlinks lost its frequency and I feel that we're coming home short
Here take me instead I'd rather not see her off alone
[Verse w/ lead 1 & 2] x4
Scattered amongst the killing streets the children slate defense
Is God's work to have us fail?
Rivered blood streams out the dead as bodies foul the air
I'll make peace when this is done
In arms... We storm
Slowly the streets begin to fill with new flesh bound to bone
Armed and ready it begins again
[Prechorus] x4
In the last hour stand
You'll notice the one that you had loved in dreams is here among the others
Chase it's you I want but if I can't have her
[Chorus w/ lead] x4
Then why should I spend any more time in a world that's going to end pretty soon?
I need you now more than I ever did
I'll hand myself over for you
This comlinks lost its frequency and I feel that we're coming home short
Here take me instead I'd rather not see her off alone
[Break] x4
Tonight we form
[Bridge] x1
[Bridge w/ lead 1] x3
[Bridge w/ lead 2/ x1
[Extra part w/ bridge lead 1] x4
Deliver a favor for my love
[Prechorus w/ lead] x4
In the last hour stand
You'll notice the one that you had loved in dreams is here among the others
Chase it's you I want but if I can't have her
[Chorus w/ lead] x4
Then why should I spend any more time in a world that's going to end pretty soon?
I need you now more than I ever did
I'll hand myself over for you
This comlinks lost its frequency and I feel that we're coming home short
Here take me instead I'd rather not see her off alone

| /  slide up
| \  slide down
| h  hammer-on
| p  pull-off
| ~  vibrato
| +  harmonic
| x  Mute note
===============================================================================
5 comments total. Showing first comments.
0 reply
snedderpie wrote on September 21 2004, 12:00 am

this is AMAZING!!!

0 reply
MobyDickHead wrote on August 12 2005, 12:00 am

I only found one problem. the lead chorus riff is this:

e|-0h5p0-7h9p0-10p0-9p0-7h9-0h5p0-7h9p0-10p0-9p0-7h9-------|

Then you go up to 12 and 10. You had that part. its a weird timing. but play along with the cd and thats right. But otherwise spot on. another great coheed tab.

0 reply
billynomates1 wrote on June 19 2008, 03:56 pm

e|-----------------------------------|
B|------10h12p10\\----12-10----10----|
G|----9---------------------11----11-|
D|-11--------------------------------|
A|-----------------------------------|
E|-----------------------------------|

Should be

e|-----------------------------------|
B|------10h12p10\\----12-10----9-----|
G|--------------------------------11-|
D|-9--11--------------------11-------|
A|-----------------------------------|
E|-----------------------------------|

I want to post or [tab]
guest
You may want to rate the tab now too:
select rating
Please do not post tabs as comments. Select "correction" instead!