Oops, an error
Loading. Please wait.

Cuts Marked In The March Of Men Tab

ver2
ver2

Whole song

Interactive

More versions @911Tabs.com
14,247 views 9 this week
2 commentsread comments
1 2 3 4 5
excellent!
x 6
Autoscroll
+/-
esc
set tempo
stop
Contributor
Difficulty
Tabbers playing skills
intermediate
advanced +
Hey! There's an official Ultimate Guitar app which is ideal
for learning songs when you're away from computer. Get the app
WARNING: You are trying to view
                                    content from Ultimate-Guitar.com
                                    in an unauthorized application,
                                    which is prohibited.

                                    Please use an official Ultimate
                                    Guitar Tabs application for iPhone,
                                    iPad or Android to access legitimate
                                    chords, guitar, bass, and drum tabs
                                    from Ultimate-Guitar.com database.

                                    Type "ultimate guitar tabs" in Apple
                                    App Store's or Android Market's
                                    search to find the application.
Tabbed by :By Francis(f_sario@yahoo.com)
          :LUcena SHC  
          :09283150081 


Gtr I (E A D G B E) - 'dist.'
Gtr II (E A D G B E) - 'dist.'
Gtr III (E A D G B E) - 'dist. w/ wah'
Gtr IV (E A D G B E) - 'dist.'
Gtr V (E A D G B E) - 'dist.'
Gtr VI (E A D G B E) - 'dist.'

 Intro
  Moderate Rock Q.=62
  F#5 N.C.
 6/8
  Gtr I
  S S S S S S S  S S S S S   S  S S S S S S S  S S  S   S
|--------------------------|-----------------------------------|
|--------------------------|-----------------------------------|
|--------------------------|-----------------------------------|
|--------------------------|-----------------------------------|
|-4-4---4-4-4-0--0---2-2-2-|--------4-4-4-2-2--0-0-------------|
|-2-2----------------------|-4--4-------------------4---0------|
|
| Gtr II
| S S Q       Q.             Q.           E    E    S  +S
|--------------------------|-----------------------------------|
|--------------------------|-----------------------10-(10)b12r=|
|-6-6----------------------|-----------------------------------|
|-x-x----------------------|--------------9---11---------------|
|-4-4----------------------|-----------------------------------|
|--------------------------|-----------------------------------|


  F#5    N.C.
    S  S S S S S   S   S S S S S   S  S S S S S  S  S S  S  S   S
|--------------------------------|----------------------------------||
|--------------------------------|----------------------------------||
|--------------------------------|----------------------------------||
|--------------------------------|----------------------------------||
|---4--4---4-4-4---0---0---2-2-2-|--------4-4-4--2--2-0--0----------||
|---2--2-------------------------|-4--4---------------------4---0---||
|
|                                                   PM|
|  +Q.            +E     Q         Q.            S  S S  S  S  +S
|--------------------------------|----------------------------------||
|-(10)-----------(10)\-----------|--------------12------10----------||
|--------------------------------|-----------------11------11-(11)\-||
|--------------------------------|--------------------9-------------||
|--------------------------------|----------------------------------||
|--------------------------------|----------------------------------||


   Verse
    $
    F#5 N.C.
    Gtr I
    S S  S  S S S S  S  S  S S S   S  S  S  S S S S  S  S S  S   S
||-------------------------------|--------------------------------------|
||o------------------------------|--------------------------------------|
||-------------------------------|--------------------------------------|
||-------------------------------|--------------------------------------|
||o-4-4-----4-4-4-0--0-----2-2-2-|----------4-4-4-2--2--0-0-------------|
||--2-2--------------------------|-4--4----------------------4---0------|
|
|   Gtr II
|   S S  Q        Q.               Q.             E     E    S  +S
||-------------------------------|--------------------------------------|
||o------------------------------|--------------------------10-(10)b12r=|
||--6-6--------------------------|--------------------------------------|
||--x-x--------------------------|----------------9----11---------------|
||o-4-4--------------------------|--------------------------------------|
||-------------------------------|--------------------------------------|
|
|       Gtr III
|   E    S  S Q         S  S E     E     S  S E   Q.
||-------------------------------|--------------------------------------|
||o------------------------------|--------------------------------------|
||-------------------------------|--------------------------------------|
||------11-11-----------9--9-----|------11-11---------------------------|
||o------9--9----------11-11-----|------12-12---------------------------|
||-------------------------------|--------------------------------------|


  F#5    N.C.
    S  S  S  S S S   S   S  S  S S S   S  S  S  S S S  S   S S  S  S   S
|------------------------------------|--------------------------------------||
|------------------------------------|-------------------------------------o||
|------------------------------------|--------------------------------------||
|------------------------------------|--------------------------------------||
|---4--4-----4-4-4---0---0-----2-2-2-|----------4-4-4--2---2-0--0----------o||
|---2--2-----------------------------|-4--4------------------------4---0----||
|
|                                                          PM|
|  +Q.              +E      Q          Q.              S   S S  S  S  +S
|------------------------------------|--------------------------------------||
|-(10)-------------(10)\-------------|----------------12-------10----------o||
|------------------------------------|--------------------11------11-(11)\--||
|------------------------------------|-----------------------9--------------||
|------------------------------------|-------------------------------------o||
|------------------------------------|--------------------------------------||
|
|   E     S  S Q            S  S E     E     S  S E    Q.
|------------------------------------|--------------------------------------||
|------------------------------------|-------------------------------------o||
|------------------------------------|--------------------------------------||
|--------11-11--------------9--9-----|------11-11---------------------------||
|---------9--9-------------11-11-----|------12-12--------------------------o||
|------------------------------------|--------------------------------------||


  F#5   N.C.
   S  S S S  S S  S  S  S S  S   S     S  S  S S  S S S    S  S S  S   S
|-----------------------------------|-----------------------------------------|
|-----------------------------------|-----------------------------------------|
|-----------------------------------|-----------------------------------------|
|-----------------------------------|-----------------------------------------|
|--4--4---4--4-4--0--0----2--2---2--|----------4--4-4-2----2--0-0-------------|
|--2--2-----------------------------|--4--4------------------------4---0------|
|
|  S  S Q         Q.                   Q.             E       E    S  +S
|-----------------------------------|-----------------------------------------|
|-----------------------------------|-----------------------------10-(10)b12r=|
|--6--6-----------------------------|-----------------------------------------|
|--x--x-----------------------------|-----------------9------11---------------|
|--4--4-----------------------------|-----------------------------------------|
|-----------------------------------|-----------------------------------------|
|
| Gtr IV
|  E.     S  S S  E     E    S  +S     E     E    E   T  T S  E    E
|----------------12----10---12-(12)S|=16----14---10---9h10p9------------------|
|-10------9s10s9--------------------|------------------------12---10----------|
|-----------------------------------|-----------------------------------------|
|-----------------------------------|-----------------------------------------|
|-----------------------------------|-----------------------------------------|
|-----------------------------------|-----------------------------------------|


  F#5    N.C.
    S  S S S  S S   S   S  S S  S   S
|--------------------------------------|
|--------------------------------------|
|--------------------------------------|
|--------------------------------------|
|---4--4---4--4-4---0---0----2--2---2--|
|---2--2-------------------------------|
|
|  +Q.             +E      Q
|--------------------------------------|
|-(10)------------(10)\----------------|
|--------------------------------------|
|--------------------------------------|
|--------------------------------------|
|--------------------------------------|
|
|   E.     S  S S   E      E    S  +S
|------------------12-----10---12-(12)S|
|--10------9s10s9----------------------|
|--------------------------------------|
|--------------------------------------|
|--------------------------------------|
|--------------------------------------|


   S  S  S S  S S  S     S  S   S  S   S
|------------------------------------------|
|------------------------------------------|
|------------------------------------------|
|------------------------------------------|
|----------4--4-4--2-----2--0---0----------|
|--4--4----------------------------4---0---|
|
|                        PM|
|  Q.              S     S  S   S  S  +S
|------------------------------------------|
|-----------------12-----------10----------|
|-----------------------11--------11-(11)\-|
|---------------------------9--------------|
|------------------------------------------|
|------------------------------------------|
|
|  E     E    E    T  T  S +Q
|-16----14---10----9h10p=9-(9)-------------|
|------------------------------------------|
|------------------------------------------|
|------------------------------------------|
|------------------------------------------|
|------------------------------------------|


  F#5 N.C.
  S S  S  S S S S  S  S  S S S   S  S  S  S S S S  S  S S  S   S
|------------------------------|--------------------------------------|
|------------------------------|--------------------------------------|
|------------------------------|--------------------------------------|
|------------------------------|--------------------------------------|
|-4-4-----4-4-4-0--0-----2-2-2-|----------4-4-4-2--2--0-0-------------|
|-2-2--------------------------|-4--4----------------------4---0------|
|
| S S  Q        Q.               Q.             E     E    S  +S
|------------------------------|--------------------------------------|
|------------------------------|--------------------------10-(10)b12r=|
|-6-6--------------------------|--------------------------------------|
|-x-x--------------------------|----------------9----11---------------|
|-4-4--------------------------|--------------------------------------|
|------------------------------|--------------------------------------|
|
|     Gtr III
| E    S  S Q         S  S E     E     S  S E   Q.
|------------------------------|--------------------------------------|
|------------------------------|--------------------------------------|
|------------------------------|--------------------------------------|
|-----11-11-----------9--9-----|------11-11---------------------------|
|------9--9----------11-11-----|------12-12---------------------------|
|------------------------------|--------------------------------------|


  F#5    N.C.
    S  S  S  S S S   S   S  S  S S S   S  S  S  S S S  S   S S  S  S   S
|------------------------------------|-------------------------------------||
|------------------------------------|-------------------------------------||
|------------------------------------|-------------------------------------||
|------------------------------------|-------------------------------------||
|---4--4-----4-4-4---0---0-----2-2-2-|----------4-4-4--2---2-0--0----------||
|---2--2-----------------------------|-4--4------------------------4---0---||
|
|                                                          PM|
|  +Q.              +E      Q          Q.              S   S S  S  S  +S
|------------------------------------|-------------------------------------||
|-(10)-------------(10)\-------------|----------------12-------10----------||
|------------------------------------|--------------------11------11-(11)\-||
|------------------------------------|-----------------------9-------------||
|------------------------------------|-------------------------------------||
|------------------------------------|-------------------------------------||
|
|   E     S  S Q            S  S E     E     S  S E    Q.
|------------------------------------|-------------------------------------||
|------------------------------------|-------------------------------------||
|------------------------------------|-------------------------------------||
|--------11-11--------------9--9-----|------11-11--------------------------||
|---------9--9-------------11-11-----|------12-12--------------------------||
|------------------------------------|-------------------------------------||


   Pre-Chorus
    E6F#5     A5    B5  E5         D5
    Gtrs I, II
          PM    PM    PM
    S  S  S S S S S S S  S  S  S    S  S  S  S  S  S  S  S  S  S  S S  3x
||-------------------------------|-------------------------------------||
||o------------------------------|------------------------------------o||
||-------------------------------|-------------------------------------||
||-------------------------------|-------------------------------------||
||o-4-(4)---4s7---7s9---14-14-14-|-12-12-12-12-12-12-12-12-12-12-12---o||
||--0h=2--0-2s5-0-5s7-0-12-12-12-|-10-10-10-10-10-10-10-10-10-10-10----||


        PM    PM    PM
  S  S  S S S S S S S  S  S  S    S  S  S  S  S  S  S  S  S  S  S  S
|------------------------------|-------------------------------------||
|------------------------------|-------------------------------------||
|------------------------------|-------------------------------------||
|------------------------------|-------------------------------------||
|-4-(4)---4s7---7s9---14-14-14-|-12-12-12-12-12-12-12-12-12-12-12-12-||
|-0h=2--0-2s5-0-5s7-0-12-12-12-|-10-10-10-10-10-10-10-10-10-10-10-10-||


   Chorus
    D5                                   B5
    Gtr I
     S  S  S  S  S  S  S  S  S  S  S S   S S S S S S  S S S S S S
||-------------------------------------|--------------------------|
||o------------------------------------|--------------------------|
||-------------------------------------|--------------------------|
||-------------------------------------|--------------------------|
||o--0--0--0--0--0--0--0--0--0--0--0---|-9-9-9-9-9-9--9-9-9-9-9---|
||--10-10-10-10-10-10-10-10-10-10-10-0-|-7-7-7-7-7-7--7-7-7-7-7-0-|
|
|   Gtrs II, V
|    S  S  S  S  S  S  S  S  S  S  S S   S S S S S S  S S S S S S
||---0--5--0--7h=9--0-10--0--9--0--7h9-|-0-5-0-7h9-0-10-0-9-0-7h9-|
||o------------------------------------|--------------------------|
||-------------------------------------|--------------------------|
||-------------------------------------|--------------------------|
||o------------------------------------|--------------------------|
||-------------------------------------|--------------------------|


  A5                         G5
  S S S S S S  S S S S S S   S S S S S S  S S  S S S  S
|--------------------------|----------------------------|
|--------------------------|----------------------------|
|--------------------------|----------------------------|
|--------------------------|----------------------------|
|-7-7-7-7-7-7--7-7-7-7-7---|-5-5-5-5-5-5--5-5--5-5-5----|
|-5-5-5-5-5-5--5-5-5-5-5-0-|-3-3-3-3-3-3--3-3--3-3-3--0-|
|
| S S S S S S  S S S S S S   S S S S S S  S S  S S S  S
|-0-5-0-7h9-0-10-0-9-0-7h9-|-0-5-0-7h9-0-12-0-10-0-9h10-|
|--------------------------|----------------------------|
|--------------------------|----------------------------|
|--------------------------|----------------------------|
|--------------------------|----------------------------|
|--------------------------|----------------------------|


  D5                                   B5
   S  S  S  S  S  S  S  S  S  S  S S   S S S S S S  S S S S S S
|------------------------------------|--------------------------|
|------------------------------------|--------------------------|
|------------------------------------|--------------------------|
|------------------------------------|--------------------------|
|-12-12-12-12-12-12-12-12-12-12-12---|-9-9-9-9-9-9--9-9-9-9-9---|
|-10-10-10-10-10-10-10-10-10-10-10-0-|-7-7-7-7-7-7--7-7-7-7-7-0-|
|
|  S  S  S  S  S  S  S  S  S  S  S S   S S S S S S  S S S S S S
|--0--5--0--7h=9--0-10--0--9--0--7h9-|-0-5-0-7h9-0-10-0-9-0-7h9-|
|------------------------------------|--------------------------|
|------------------------------------|--------------------------|
|------------------------------------|--------------------------|
|------------------------------------|--------------------------|
|------------------------------------|--------------------------|


                                         D.S. al Coda
                                         D.S. al Coda
  A5                         G5
  S S S S S S  S S S S S S   S S S S S S  S S  S S S  S
|--------------------------|-----------------------------||
|--------------------------|----------------------------o||
|--------------------------|-----------------------------||
|--------------------------|-----------------------------||
|-7-7-7-7-7-7--7-7-7-7-7---|-5-5-5-5-5-5--5-5--5-5-5----o||
|-5-5-5-5-5-5--5-5-5-5-5-0-|-3-3-3-3-3-3--3-3--3-3-3--0--||
|
| S S S S S S  S S S S S S   S S S S S S  S S  S S S  S
|-0-5-0-7h9-0-10-0-9-0-7h9-|-0-5-0-7h9-0-12-0-10-0-9h10--||
|--------------------------|----------------------------o||
|--------------------------|-----------------------------||
|--------------------------|-----------------------------||
|--------------------------|----------------------------o||
|--------------------------|-----------------------------||


 Breakdown
  Slower Q.=60
  &
  C#5B5N.C.
  Gtr I
   S S  E   E  S  S  E   E     E   E  E S S S S S S
|---------------------------|-----------------------|
|---------------------------|-----------------------|
|---------------------------|-----------------------|
|--6-4---------------2---2--|-----------------5-----|
|--4-2--0---0--2s=4---------|------5--5-0-2-5---5-4-|
|---------------------------|--3--------------------|
|
| Gtr IV
|  S S  E   E  S  S  E   E     E   E  E S S S S S S
|---------------------------|-----------------------|
|---------------------------|-----------------------|
|--------------------9------|-----------------------|
|-11s9--7---7--9s11------9--|------9--9-------5-----|
|---------------------------|-10--------0-2-5---5-4-|
|---------------------------|-----------------------|
|
| Gtr II
|  S S  E   E  S  S  E   E     E   E  E S S S S S S
|---------------------------|-----------------------|
|---------------------------|-----------------------|
|---------------------------|-----------------------|
|-------------------[2]-[2]-|-----------------5-----|
|--4s2-[0]-[0]-2s=4---------|-----[5]-5-0-2-5---5-4-|
|---------------------------|-[3]-------------------|


  C#5B5N.C.
   S S  E   E  S  S  E   E     E   E  E S S S S S S
|---------------------------|------------------------|
|---------------------------|------------------------|
|---------------------------|------------------------|
|--6-4---------------2---2--|-----------------5------|
|--4-2--0---0--2s=4---------|------5--5-0-2-5---5-4--|
|---------------------------|--3---------------------|
|
|  S S  E   E  S  S  E   E     E   E  E S S S S S S
|---------------------------|------------------------|
|---------------------------|------------------------|
|--------------------9------|------------------------|
|-11s9--7---7--9s11------9--|------9--9-------5------|
|---------------------------|-10--------0-2-5---5-4--|
|---------------------------|------------------------|
|
|  S S  E   E  S  S  E   E     E   E  E S S S S S S
|---------------------------|------------------------|
|---------------------------|------------------------|
|---------------------------|------------------------|
|-------------------[2]-[2]-|-----------------5------|
|--4s2-[0]-[0]-2s=4---------|-----[5]-5-0-2-5---5-4--|
|---------------------------|-[3]--------------------|


  C#5B5N.C.
   S S  E   E  S  S  E   E     E   E  E S S S S S S
|---------------------------|-----------------------|
|---------------------------|-----------------------|
|---------------------------|-----------------------|
|--6-4---------------2---2--|-----------------5-----|
|--4-2--0---0--2s=4---------|------5--5-0-2-5---5-4-|
|---------------------------|--3--------------------|
|
|  S S  E   E  S  S  E   E     E   E  E S S S S S S
|---------------------------|-----------------------|
|---------------------------|-----------------------|
|--------------------9------|-----------------------|
|-11s9--7---7--9s11------9--|------9--9-------5-----|
|---------------------------|-10--------0-2-5---5-4-|
|---------------------------|-----------------------|
|
|  S S  E   E  S  S  E   E     E   E  E S S S S S S
|---------------------------|-----------------------|
|---------------------------|-----------------------|
|---------------------------|-----------------------|
|-------------------[2]-[2]-|-----------------5-----|
|--4s2-[0]-[0]-2s=4---------|-----[5]-5-0-2-5---5-4-|
|---------------------------|-[3]-------------------|


  C#5B5N.C.
   S S  E   E  S  S  E   E     E   E  E S S S S S S
|---------------------------|------------------------||
|---------------------------|------------------------||
|---------------------------|------------------------||
|--6-4---------------2---2--|-----------------5------||
|--4-2--0---0--2s=4---------|------5--5-0-4-5---5-4--||
|---------------------------|--3---------------------||
|
|  S S  E   E  S  S  E   E     E   E  E S S S S S S
|---------------------------|------------------------||
|---------------------------|------------------------||
|--------------------9------|------------------------||
|-11s9--7---7--9s11------9--|------9--9-------5------||
|---------------------------|-10--------0-4-5---5-4--||
|---------------------------|------------------------||
|
|  S S  E   E  S  S  E   E     E   E  E S S S S S S
|---------------------------|------------------------||
|---------------------------|------------------------||
|---------------------------|------------------------||
|-------------------[2]-[2]-|-----------------5------||
|--4s2-[0]-[0]-2s=4---------|-----[5]-5-0-4-5---5-4--||
|---------------------------|-[3]--------------------||


 Interlude
  A            A5            Asus4       A5A
  Gtrs II, V
  S  S S S S S S S S S S S    S  S S S S S S S S S S S
|--------------------------|---------------------------|
|--------------------------|---------------------------|
|--------6-6---9-9---9-9---|--7--7---7-7-9-6-6---6-6---|
|-7--9---7-7---7-7---7-7---|--7--7---7-7-7-7-7---7-7---|
|-7--9---0-0---0-0---0-0---|--0--0---0-0-0-0-0---0-0---|
|-7--7---------------------|---------------------------|
|
| Gtr IV
| H.                         +H.
|-0------------------------|-(0)-----------------------|
|-2------------------------|-(2)-----------------------|
|-2------------------------|-(2)-----------------------|
|-2------------------------|-(2)-----------------------|
|-0------------------------|-(0)-----------------------|
|--------------------------|---------------------------|


    A             A5              Asus4          A5A
    S S S S  S  S S S S S  S  S    S S   S   S S S S S  S   S S S  3x
||------------------------------|----------------------------------||
||o-----------------------------|---------------------------------o||
||--------6--6----9-9---9--9----|--7-7-------7-7-9-6-6------6-6----||
||--7-9---7--7----7-7---7--7----|--7-7-------7-7-7-7-7------7-7----||
||o-7-9---0--0----0-0---0--0----|--0-0-------0-0-0-0-0------0-0---o||
||--7-7-------------------------|----------------------------------||
|
|   Q       +E    Q       +E       E    +E.      S E   +E.      S  3x
||----------------5-------(5)S==|=12---(12)\-------5---(5)\--------||
||o-2-------(2)S==7-------(7)S==|=14---(14)\-------7---(7)\-------o||
||--2-------(2)S==7-------(7)S==|=14---(14)\-------7---(7)\--------||
||------------------------------|----------------------------------||
||o-----------------------------|---------------------------------o||
||------------------------------|----------------------------------||


  A           A5            Asus4     A5A
  S S S S S S S S S S S S   S S S S S S S S S S S S
|-------------------------|-------------------------|
|-------------------------|-------------------------|
|-------6-6---9-9---9-9---|-7-7---7-7-9-6-6---6-6---|
|-7-9---7-7---7-7---7-7---|-7-7---7-7-7-7-7---7-7---|
|-7-9---0-0---0-0---0-0---|-0-0---0-0-0-0-0---0-0---|
|-7-7---------------------|-------------------------|
|
| E   E   E   E   E   E     E   E   E   E   E   E
|-------------------------|-------------------------|
|-----0-------0-----------|-----3-------3-----------|
|---------3-------3-------|---------4-------4-------|
|-4-------------------4---|-5-------------------5---|
|-------------------------|-------------------------|
|-------------------------|-------------------------|


  A              D      A
  Gtr IV
  H    +E  +E    Q  +E  Q.
|-0----(0)-(0)-|-5--(5)S0----||
|-2----(2)-(2)S|=7--(7)S2----||
|-2----(2)-(2)S|=7--(7)S2----||
|--------------|-------------||
|--------------|-------------||
|--------------|-------------||


   Bridge
    A
    Gtrs II, V
    S S S S S S S S  S  S  S  S    S S S S   S  S S  S S S S S
||------------------------------|------------------------------|
||o-----------------------------|------------------------------|
||--6-6---6-6---6-6-----6--6----|--6-6---6---6----6--6---6-6---|
||--7-7---7-7---7-7-----7--7----|--7-7---7---7----7--7---7-7---|
||o-0-0---0-0---0-0-----0--0----|--0-0---0---0----0--0---0-0---|
||------------------------------|------------------------------|
|
|   Gtr IV
|   H               +E    +E       Q        +E    Q.
||--0---------------(0)---(0)---|-12-------(12)S==5------------|
||o-2---------------(2)---(2)S==|=14-------(14)S==7------------|
||--2---------------(2)---(2)S==|=14-------(14)S==7------------|
||------------------------------|------------------------------|
||o-----------------------------|------------------------------|
||------------------------------|------------------------------|


  D5                                            Asus4
  S S S S S S S S  S  S  S  S    S S S S   S  S S  S S S S S   3x
|-----------------------------|--------------------------------||
|-----------------------------|-------------------------------o||
|-7-7---7---7-7-7-----7-----7-|--7-7---7------7-7--7---7---7---||
|-7-7---7---7-7-7-----7-----7-|--7-7---7------7-7--7---7---7---||
|-5-5---5---5-5-5-----5-----5-|--5-5---5------5-0--0---0---0--o||
|-----------------------------|--------------------------------||
|
| H               +E    +E       Q        +E    Q.             3x
|-0---------------(0)---(0)---|-12-------(12)S==5--------------||
|-2---------------(2)---(2)S==|=14-------(14)S==7-------------o||
|-2---------------(2)---(2)S==|=14-------(14)S==7--------------||
|-----------------------------|--------------------------------||
|-----------------------------|-------------------------------o||
|-----------------------------|--------------------------------||


  A
  Gtr V
  S S S S S S S S  S  S  S  S    S S S S   S  S S  S S S S S
|-----------------------------|------------------------------|
|-----------------------------|------------------------------|
|-6-6---6-6---6-6-----6--6----|--6-6---6---6----6--6---6-6---|
|-7-7---7-7---7-7-----7--7----|--7-7---7---7----7--7---7-7---|
|-0-0---0-0---0-0-----0--0----|--0-0---0---0----0--0---0-0---|
|-----------------------------|------------------------------|
|
| Gtr II
| S S S S S S S S  S  S  S  S    S S S S   S  S S  S S S S S
|-----------------------------|------------------------------|
|-----------------------------|------------------------------|
|-6-6---6-6---6-6-----6--6----|--6-6---6---6----6--6---6-6---|
|-7-7---7-7---7-7-----7--7----|--7-7---7---7----7--7---7-7---|
|-0-0---0-0---0-0-----0--0----|--0-0---0---0----0--0---0-0---|
|-----------------------------|------------------------------|
|
| Gtr IV
| H               +E    +E       Q        +E    Q.
|-0---------------(0)---(0)---|-12-------(12)S==5------------|
|-2---------------(2)---(2)S==|=14-------(14)S==7------------|
|-2---------------(2)---(2)S==|=14-------(14)S==7------------|
|-----------------------------|------------------------------|
|-----------------------------|------------------------------|
|-----------------------------|------------------------------|


  D5                                            N.C.
  S S S S S S S S  S  S  S  S    S S S S   S  S  E     E    E
|-----------------------------|------------------------------------||
|-----------------------------|-----------------[7]----------------||
|-7-7---7---7-7-7-----7-----7-|--7-7---7------7-------[7]----------||
|-7-7---7---7-7-7-----7-----7-|--7-7---7------7-------------7\-----||
|-5-5---5---5-5-5-----5-----5-|--5-5---5------5--------------------||
|-----------------------------|------------------------------------||
|
| S S S S S S S S  S  S  S  S    S S S S   S  S  S  S  S  S S  S
|-----------------------------|------------------------------------||
|-----------------------------|------------------------------------||
|-7-7---7---7-7-7-----7-----7-|--7-7---7------7--7--7-----7----7---||
|-7-7---7---7-7-7-----7-----7-|--7-7---7------7--7--7-----7----7---||
|-5-5---5---5-5-5-----5-----5-|--5-5---5------5--0--0-----0----0---||
|-----------------------------|------------------------------------||
|
| H               +E    +E       Q        +E     Q.
|-0---------------(0)---(0)---|-12-------(12)S===5-----------------||
|-2---------------(2)---(2)S==|=14-------(14)S===7-----------------||
|-2---------------(2)---(2)S==|=14-------(14)S===7-----------------||
|-----------------------------|------------------------------------||
|-----------------------------|------------------------------------||
|-----------------------------|------------------------------------||


   Pre-Chorus
    A Tempo Q.=62
    E6                A5        B5   E5
    Gtrs I, II
                 PM         PM     PM
     S       S   S  S   S   S S S  S  S  S     S
||-----------------------------------------------|
||o----------------------------------------------|
||-----------------------------------------------|
||-----------------------------------------------|
||o--4------(4)-----4s==7-----7s9----14-14----14-|
||---0h======2---0--2s==5---0-5s7--0-12-12----12-|
|
|   Gtrs IV, VI
|    S      +S   S  S  +S   S E    E     T  T  S
||--------------12-------------------------------|
||o-12b14==(12)----12r(12)-10-9---10-----9h10p=9-|
||-----------------------------------------------|
||-----------------------------------------------|
||o----------------------------------------------|
||-----------------------------------------------|


  D5
   S  S  S  S  S  S  S  S  S  S  S S  3x
|-------------------------------------||
|------------------------------------o||
|-------------------------------------||
|-------------------------------------||
|-12-12-12-12-12-12-12-12-12-12-12---o||
|-10-10-10-10-10-10-10-10-10-10-10----||
|
|  Q           S  S  S  S  S  S  S S  3x
|-------------------------------------||
|------------------------------------o||
|-11----------11--9-----9--------9----||
|-------------------11-----9-11-------||
|------------------------------------o||
|-------------------------------------||


               PM         PM     PM
   S       S   S  S   S   S S S  S  S  S     S
|----------------------------------------------|
|----------------------------------------------|
|----------------------------------------------|
|----------------------------------------------|
|--4------(4)-----4s==7-----7s9----14-14----14-|
|--0h======2---0--2s==5---0-5s7--0-12-12----12-|
|
|  S      +S   S  S  +S   S E    E     T  T  S
|-------------12-------------------------------|
|-12b14==(12)----12r(12)-10-9---10-----9h10p=9-|
|----------------------------------------------|
|----------------------------------------------|
|----------------------------------------------|
|----------------------------------------------|


   S  S  S  S  S  S  S  S  S  S  S  S
|-------------------------------------||
|-------------------------------------||
|-------------------------------------||
|-------------------------------------||
|-12-12-12-12-12-12-12-12-12-12-12-12-||
|-10-10-10-10-10-10-10-10-10-10-10-10-||
|
|  Q           S  S  S  S  S  S  S  S
|-------------------------------------||
|-------------------------------------||
|-11----------11--9-----9--------9----||
|-------------------11-----9-11-------||
|-------------------------------------||
|-------------------------------------||


   Out-Chorus
    D5                                   B5
    Gtr I
     S  S  S  S  S  S  S  S  S  S  S S   S S S S S S  S S S S S S
||-------------------------------------|--------------------------|
||o------------------------------------|--------------------------|
||-------------------------------------|--------------------------|
||-------------------------------------|--------------------------|
||o--0--0--0--0--0--0--0--0--0--0--0---|-9-9-9-9-9-9--9-9-9-9-9---|
||--10-10-10-10-10-10-10-10-10-10-10-0-|-7-7-7-7-7-7--7-7-7-7-7-0-|
|
|   Gtrs II, V
|    S  S  S  S  S  S  S  S  S  S  S S   S S S S S S  S S S S S S
||---0--5--0--7h=9--0-10--0--9--0--7h9-|-0-5-0-7h9-0-10-0-9-0-7h9-|
||o------------------------------------|--------------------------|
||-------------------------------------|--------------------------|
||-------------------------------------|--------------------------|
||o------------------------------------|--------------------------|
||-------------------------------------|--------------------------|


  A5                         G5
  S S S S S S  S S S S S S   S S S S S S  S S  S S S  S
|--------------------------|----------------------------|
|--------------------------|----------------------------|
|--------------------------|----------------------------|
|--------------------------|----------------------------|
|-7-7-7-7-7-7--7-7-7-7-7---|-5-5-5-5-5-5--5-5--5-5-5----|
|-5-5-5-5-5-5--5-5-5-5-5-0-|-3-3-3-3-3-3--3-3--3-3-3--0-|
|
| S S S S S S  S S S S S S   S S S S S S  S S  S S S  S
|-0-5-0-7h9-0-10-0-9-0-7h9-|-0-5-0-7h9-0-12-0-10-0-9h10-|
|--------------------------|----------------------------|
|--------------------------|----------------------------|
|--------------------------|----------------------------|
|--------------------------|----------------------------|
|--------------------------|----------------------------|


  D5                                   B5
   S  S  S  S  S  S  S  S  S  S  S S   S S S S S S  S S S S S S
|------------------------------------|--------------------------|
|------------------------------------|--------------------------|
|------------------------------------|--------------------------|
|------------------------------------|--------------------------|
|-12-12-12-12-12-12-12-12-12-12-12---|-9-9-9-9-9-9--9-9-9-9-9---|
|-10-10-10-10-10-10-10-10-10-10-10-0-|-7-7-7-7-7-7--7-7-7-7-7-0-|
|
|  S  S  S  S  S  S  S  S  S  S  S S   S S S S S S  S S S S S S
|--0--5--0--7h=9--0-10--0--9--0--7h9-|-0-5-0-7h9-0-10-0-9-0-7h9-|
|------------------------------------|--------------------------|
|------------------------------------|--------------------------|
|------------------------------------|--------------------------|
|------------------------------------|--------------------------|
|------------------------------------|--------------------------|


  1.
  A5                         G5
  S S S S S S  S S S S S S   S S S S S S  S S  S S S  S
|--------------------------|-----------------------------||
|--------------------------|----------------------------o||
|--------------------------|-----------------------------||
|--------------------------|-----------------------------||
|-7-7-7-7-7-7--7-7-7-7-7---|-5-5-5-5-5-5--5-5--5-5-5----o||
|-5-5-5-5-5-5--5-5-5-5-5-0-|-3-3-3-3-3-3--3-3--3-3-3--0--||
|
| S S S S S S  S S S S S S   S S S S S S  S S  S S S  S
|-0-5-0-7h9-0-10-0-9-0-7h9-|-0-5-0-7h9-0-12-0-10-0-9h10--||
|--------------------------|----------------------------o||
|--------------------------|-----------------------------||
|--------------------------|-----------------------------||
|--------------------------|----------------------------o||
|--------------------------|-----------------------------||


  2.
  A5                         G5
  S S S S S S  S S S S S S   H.
|--------------------------|-------*|
|--------------------------|-------*|
|--------------------------|-------*|
|--------------------------|-------*|
|-7-7-7-7-7-7--7-7-7-7-7---|-5-----*|
|-5-5-5-5-5-5--5-5-5-5-5-0-|-3-----*|
|
| S S S S S S  S S S S S S   H.
|-0-5-0-7h9-0-10-0-9-0-7h9-|-5-----*|
|--------------------------|-------*|
|--------------------------|-------*|
|--------------------------|-------*|
|--------------------------|-------*|
|--------------------------|-------*|
comments
print report bad tab
2 comments total.
0 reply
Pittman wrote on May 28 2007, 05:26 pm

This is one of my favs and you did awesome.Id say 100% great job.

0 reply
AestheticSelkie wrote on October 11 2007, 07:53 pm

Sounds good.

I want to post or [tab]
guest
You may want to rate the tab now too:
select rating
Please do not post tabs as comments. Select "correction" instead!