Oops, an error
Loading. Please wait.

Devil In Jersey City Tab

ver4
ver4

Interactive

More versions @911Tabs.com
857 views 1 this week
no commentswrite comment
1 2 3 4 5
please rate
add to favorites launch autoscroll
font size
0
reset
Autoscroll
+/-
esc
set tempo
stop
Contributor
Difficulty
intermediate
WARNING: You are trying to view
                                    content from Ultimate-Guitar.com
                                    in an unauthorized application,
                                    which is prohibited.

                                    Please use an official Ultimate
                                    Guitar Tabs application for iPhone,
                                    iPad or Android to access legitimate
                                    chords, guitar, bass, and drum tabs
                                    from Ultimate-Guitar.com database.

                                    Type "ultimate guitar tabs" in Apple
                                    App Store's or Android Market's
                                    search to find the application.
----------------------------------------------------------------------
               Devil in Jersey City - Coheed and Cambria
----------------------------------------------------------------------
Tabbed by:Toxicmedacation
Email:metalguy177@yahoo.com

Tuning: Standard

For the Coheed and Cambria fans, this tab is at least 99.99% right, enjoy.

i did this tab in notepad, if there are any difficulties, copy paste

to word, set font to 7 courier new.

Rhythm Guitar (Claudio)


Verse A x2

e|---------------------------------------------------------------------------|
B|---------------------------------------------------------------------------|
G|---------------------------------------------------------------------------|
D|---------------------------------------------------------------------------|
A|9-9-9-9-9-9-9-9-9-9-9-9-9-9-9-9--9--9--9--9--9--9--9--9--9--9--9--9--9--9--|
E|7-7-7-7-7-7-7-7-7-7-7-7-7-7-7-10-10-10-10-10-10-10-10-10-10-10-10-10-1010--|
pm. . . . . . . . . . . . . . .  .  .  .  .  .  .  .  .  .  .  .  .  .  . .

e|----------------------------------------------------------------------|
B|----------------------------------------------------------------------|
G|----------------------------------------------------------------------|
D|----------------------------------------------------------------------|
A|5-5-5-5-5-5-5-5-5-5-5-5-5-5-5-5-5-5-5-5-5-5-5-5-5-5-5-5-5-5-5-5-5-----|
E|3-3-3-3-3-3-3-3-3-3-3-3-3-3-3-3-3-3-3-3-3-3-3-3-3-3-3-3-3-3-3-3-3-----|
pm. . . . . . . . . . . . . . . . . . . . . . . . . . . . . . . . .


Verse B x1

e|---------------------------------------------------------------------------|
B|---------------------------------------------------------------------------|
G|---------------------------------------------------------------------------|
D|---------------------------------------------------------------------------|
A|9-9-9-9-9-9-9-9-9-9-9-9-9-9-9-9--9--9--9--9--9--9--9--9--9--9--9--9--9--9--|
E|7-7-7-7-7-7-7-7-7-7-7-7-7-7-7-10-10-10-10-10-10-10-10-10-10-10-10-10-1010--|


e|----------------------------------------------------------------------|
B|----------------------------------------------------------------------|
G|----------------------------------------------------------------------|
D|----------------------------------------------------------------------|
A|5-5-5-5-5-5-5-5-5-5-5-5-5-5-5-5-5-5-5-5-5-5-5-5-5-5-5-5-5-5-5-5-5-----|
E|3-3-3-3-3-3-3-3-3-3-3-3-3-3-3-3-3-3-3-3-3-3-3-3-3-3-3-3-3-3-3-3-3-----|


Verse C x1

e|---------------------------------------------------------------------------|
B|---------------------------------------------------------------------------|
G|---------------------------------------------------------------------------|
D|---------------------------------------------------------------------------|
A|9-9-9-9-9-9-9-9-9-9-9-9-9-9-9-9--9--9--9--9--9--9--9--9--9--9--9--9--9--9--|
E|7-7-7-7-7-7-7-7-7-7-7-7-7-7-7-10-10-10-10-10-10-10-10-10-10-10-10-10-1010--|
pm. . . . . . . . . . . . . . .  .  .  .  .  .  .  .  .  .  .  .  .  .  . .

e|----------------------------------------------------------------------|
B|----------------------------------------------------------------------|
G|----------------------------------------------------------------------|
D|----------------------------------------------------------------------|
A|5-5-5-5-5-5-5-5-5-5-5-5-5-5-5-5-5-5-5-5-5-5-5-5-5-5-5-5-5-5-5-5-5-----|
E|3-3-3-3-3-3-3-3-3-3-3-3-3-3-3-3-3-3-3-3-3-3-3-3-3-3-3-3-3-3-3-3-3-----|


pre-chorus x2

e|----------------------------------------------------------------------|
B|----------------------------------------------------------------------|
G|----------------------------------------------------------------------|
D|----------------------------------------------------------------------|
A|-7/9-9--7/9-9--7/9-9--7/9-9-----------7/9-9--7/9-9--7/9-9--7/9-9------|
E|-5/7-7--5/7-7--5/7-7--5/7-7-----------5/7-7--5/7-7--5/7-7--5/7-7------|

e|----------------------------------------------------------------------|
B|----------------------------------------------------------------------|
G|------*------------*------------*-------------------------------------|
D|--0-7-5-4------0-7-5-4------0-7-5-4------0-7-5-4----------------------|
A|5--------7-5-5--------7-5-5--------7-5-5--------7-5-------------------|
E|3------------3------------3------------3------------------------------|

Chorus x2

e|----------------------------------------------------------------------|
B|----------------------------------------------------------------------|
G|----------------------------------------------------------------------|
D|----------------------------------------------------------------------|
A|-7-7-7-7-7-7-7-7-7-7-7-7-7-7-7-7-5-5-5-5-5-5-5-5-5-5-5-5-5-5-5-5------|
E|-5-5-5-5-5-5-5-5-5-5-5-5-5-5-5-5-3-3-3-3-3-3-3-3-3-3-3-3-3-3-3-3------|
pm . . . . . . . . . . . . . . . . . . . . . . . . . . . . . . . .


e|----------------------------------------------------------------------|
B|----------------------------------------------------------------------|
G|----------------------------------------------------------------------|
D|----------------------------------------------------------------------|
A|-9-9-9-9-9-9-9-9-9-9-9-9-9-9-9-9-7-7-7-7-7-7-7-7-7-7-7-7-7--9---------|
E|-7-7-7-7-7-7-7-7-7-7-7-7-7-7-7-7-5-5-5-5-5-5-5-5-5-5-5-5-5--7---------|

e|----------------------------------------------------------------------|
B|----------------------------------------------------------------------|
G|----------------------------------------------------------------------|
D|----------------------------------------------------------------------|
A|-5-5-5-5-5-5-5-5-5-5-5-5-5-5-5-5-5-5-5-5-5-5-5-5-5-5-5-5-5-5-5-5-5----|
E|-3-3-3-3-3-3-3-3-3-3-3-3-3-3-3-3-3-3-3-3-3-3-3-3-3-3-3-3-3-3-3-3-3----|

Verse A x2

e|---------------------------------------------------------------------------|
B|---------------------------------------------------------------------------|
G|---------------------------------------------------------------------------|
D|---------------------------------------------------------------------------|
A|9-9-9-9-9-9-9-9-9-9-9-9-9-9-9-9--9--9--9--9--9--9--9--9--9--9--9--9--9--9--|
E|7-7-7-7-7-7-7-7-7-7-7-7-7-7-7-10-10-10-10-10-10-10-10-10-10-10-10-10-1010--|
pm. . . . . . . . . . . . . . .  .  .  .  .  .  .  .  .  .  .  .  .  .  . .

e|----------------------------------------------------------------------|
B|----------------------------------------------------------------------|
G|----------------------------------------------------------------------|
D|----------------------------------------------------------------------|
A|5-5-5-5-5-5-5-5-5-5-5-5-5-5-5-5-5-5-5-5-5-5-5-5-5-5-5-5-5-5-5-5-5-----|
E|3-3-3-3-3-3-3-3-3-3-3-3-3-3-3-3-3-3-3-3-3-3-3-3-3-3-3-3-3-3-3-3-3-----|
pm. . . . . . . . . . . . . . . . . . . . . . . . . . . . . . . . .


Verse B x1

e|---------------------------------------------------------------------------|
B|---------------------------------------------------------------------------|
G|---------------------------------------------------------------------------|
D|---------------------------------------------------------------------------|
A|9-9-9-9-9-9-9-9-9-9-9-9-9-9-9-9--9--9--9--9--9--9--9--9--9--9--9--9--9--9--|
E|7-7-7-7-7-7-7-7-7-7-7-7-7-7-7-10-10-10-10-10-10-10-10-10-10-10-10-10-1010--|


e|----------------------------------------------------------------------|
B|----------------------------------------------------------------------|
G|----------------------------------------------------------------------|
D|----------------------------------------------------------------------|
A|5-5-5-5-5-5-5-5-5-5-5-5-5-5-5-5-5-5-5-5-5-5-5-5-5-5-5-5-5-5-5-5-5-----|
E|3-3-3-3-3-3-3-3-3-3-3-3-3-3-3-3-3-3-3-3-3-3-3-3-3-3-3-3-3-3-3-3-3-----|


Verse C x1

e|---------------------------------------------------------------------------|
B|---------------------------------------------------------------------------|
G|---------------------------------------------------------------------------|
D|---------------------------------------------------------------------------|
A|9-9-9-9-9-9-9-9-9-9-9-9-9-9-9-9--9--9--9--9--9--9--9--9--9--9--9--9--9--9--|
E|7-7-7-7-7-7-7-7-7-7-7-7-7-7-7-10-10-10-10-10-10-10-10-10-10-10-10-10-1010--|
pm. . . . . . . . . . . . . . .  .  .  .  .  .  .  .  .  .  .  .  .  .  . .

e|----------------------------------------------------------------------|
B|----------------------------------------------------------------------|
G|----------------------------------------------------------------------|
D|----------------------------------------------------------------------|
A|5-5-5-5-5-5-5-5-5-5-5-5-5-5-5-5-5-5-5-5-5-5-5-5-5-5-5-5-5-5-5-5-5-----|
E|3-3-3-3-3-3-3-3-3-3-3-3-3-3-3-3-3-3-3-3-3-3-3-3-3-3-3-3-3-3-3-3-3-----|
pm. . . . . . . . . . . . . . . . . . . .

pre-chorus x2

e|----------------------------------------------------------------------|
B|----------------------------------------------------------------------|
G|----------------------------------------------------------------------|
D|----------------------------------------------------------------------|
A|-7/9-9--7/9-9--7/9-9--7/9-9-----------7/9-9--7/9-9--7/9-9--7/9-9------|
E|-5/7-7--5/7-7--5/7-7--5/7-7-----------5/7-7--5/7-7--5/7-7--5/7-7------|

e|----------------------------------------------------------------------|
B|----------------------------------------------------------------------|
G|------*------------*------------*-------------------------------------|
D|--0-7-5-4------0-7-5-4------0-7-5-4------0-7-5-4----------------------|
A|5--------7-5-5--------7-5-5--------7-5-5--------7-5-------------------|
E|3------------3------------3------------3------------------------------|

Chorus x2

e|----------------------------------------------------------------------|
B|----------------------------------------------------------------------|
G|----------------------------------------------------------------------|
D|----------------------------------------------------------------------|
A|-7-7-7-7-7-7-7-7-7-7-7-7-7-7-7-7-5-5-5-5-5-5-5-5-5-5-5-5-5-5-5-5------|
E|-5-5-5-5-5-5-5-5-5-5-5-5-5-5-5-5-3-3-3-3-3-3-3-3-3-3-3-3-3-3-3-3------|
pm . . . . . . . . . . . . . . . . . . . . . . . . . . . . . . . .


e|----------------------------------------------------------------------|
B|----------------------------------------------------------------------|
G|----------------------------------------------------------------------|
D|----------------------------------------------------------------------|
A|-9-9-9-9-9-9-9-9-9-9-9-9-9-9-9-9-7-7-7-7-7-7-7-7-7-7-7-7-7--9---------|
E|-7-7-7-7-7-7-7-7-7-7-7-7-7-7-7-7-5-5-5-5-5-5-5-5-5-5-5-5-5--7---------|

e|----------------------------------------------------------------------|
B|----------------------------------------------------------------------|
G|----------------------------------------------------------------------|
D|----------------------------------------------------------------------|
A|-5-5-5-5-5-5-5-5-5-5-5-5-5-5-5-5-5-5-5-5-5-5-5-5-5-5-5-5-5-5-5-5-5----|
E|-3-3-3-3-3-3-3-3-3-3-3-3-3-3-3-3-3-3-3-3-3-3-3-3-3-3-3-3-3-3-3-3-3----|


Bridge x2

e|----------------------------------------------------------------2-2---|
B|----------------------------------------------------------2/3-3-----3-|
G|----------------------------------------------------------------------|
D|----7~-5~-4~-0-2/4-0--7-7-7-7-7-0-222222222222222/7777-000------------|
A|-5~-------------------------------------------------------------------|
E|----------------------------------------------------------------------|

Bridge end x1

e|----------------------------------------------------------------------|
B|----------------------------------------------------------------------|
G|----------------------------------------------------------------------|
D|---7---------7-----------------5---------5----------------------------|
A|---7---------7-----------------5---------5----------------------------|
E|---5---------5-----------------3---------3----------------------------|


Outro A x3

e|-----------------*--*---------------------*--*------------------------|
B|--*-------------19-19------*-------------17-17------------------------|
G|-16-------------19-19-----16-------------18-18------------------------|
D|----19-17-16-----------------19-17-16---------------------------------|
A|-------------17-----------------------17------------------------------|
E|----------------------------------------------------------------------|

e|-----------------*--*---------------------*--*--------------------------|
B|--*-------------19-19------*-------------17-17--------------------------|
G|-16-------------19-19-----16-------------18-18--------------------------|
D|----19-17-16-*---------------19-17-16-*---------------------------------|
A|-------------17-----------------------17--------------------------------|
E|------------------------------------------------------------------------|


e|----------------------------------------------------------------------|
B|----------------------------------------------------------------------|
G|----------------------------------------------------------------------|
D|----------------------------------------------------------------------|
A|-5-5-5-5-5-5-5-5-5-5-5-5-5-5-5-5-5-5-5-5-5-5-5-5-5-5-5-5-5-5-5-5-5----|
E|-3-3-3-3-3-3-3-3-3-3-3-3-3-3-3-3-3-3-3-3-3-3-3-3-3-3-3-3-3-3-3-3-3----|

Outro B x1

e|-----------------*--*---------------------*--*------------------------|
B|--*-------------19-19------*-------------17-17------------------------|
G|-16-------------19-19-----16-------------18-18------------------------|
D|----19-17-16-----------------19-17-16---------------------------------|
A|-------------17-----------------------17------------------------------|
E|----------------------------------------------------------------------|

e|-----------------*--*---------------------*--*------------------------|
B|--*-------------19-19------*-------------17-17------------------------|
G|-16-------------19-19-----16-------------18-18------------------------|
D|----19-17-16-----------------19-17-16---------------------------------|
A|-------------17-----------------------17------------------------------|
E|----------------------------------------------------------------------|

Lead Guitar (Travis)

Verse A x2

e|---------------------------------------------------------------------------|
B|---------------------------------------------------------------------------|
G|---------------------------------------------------------------------------|
D|---------------------------------------------------------------------------|
A|9-9-9-9-9-9-9-9-9-9-9-9-9-9-9-9--9--9--9--9--9--9--9--9--9--9--9--9--9--9--|
E|7-7-7-7-7-7-7-7-7-7-7-7-7-7-7-10-10-10-10-10-10-10-10-10-10-10-10-10-1010--|
pm. . . . . . . . . . . . . . .  .  .  .  .  .  .  .  .  .  .  .  .  .  . .

e|12-10--14-10--12-10--15-10--17-10--10-12-10---14-10--12-10--15-10--17-10|
B|-----10-----10-----10-----10-----10--------10------10-----10-----10-----|
G|------------------------------------------------------------------------|
D|------------------------------------------------------------------------|
A|------------------------------------------------------------------------|
E|------------------------------------------------------------------------|

Verse B x1

e|---------------------------------------------------------------------------|
B|---------------------------------------------------------------------------|
G|---------------------------------------------------------------------------|
D|---------------------------------------------------------------------------|
A|9-9-9-9-9-9-9-9-9-9-9-9-9-9-9-9--9--9--9--9--9--9--9--9--9--9--9--9--9--9--|
E|7-7-7-7-7-7-7-7-7-7-7-7-7-7-7-10-10-10-10-10-10-10-10-10-10-10-10-10-1010--|


e|---3---3---5---5---3---5---3---5--------------------------------------|
B|---0---0---0---0---0---0---0---0--------------------------------------|
G|---4---4---4---4---4---4---4---4--------------------------------------|
D|---5---5---5---5---5---5---5---5--------------------------------------|
A|----------------------------------------------------------------------|
E|----------------------------------------------------------------------|


Verse C x1

e|---------------------------------------------------------------------------|
B|---------------------------------------------------------------------------|
G|---------------------------------------------------------------------------|
D|---------------------------------------------------------------------------|
A|9-9-9-9-9-9-9-9-9-9-9-9-9-9-9-9--9--9--9--9--9--9--9--9--9--9--9--9--9--9--|
E|7-7-7-7-7-7-7-7-7-7-7-7-7-7-7-10-10-10-10-10-10-10-10-10-10-10-10-10-1010--|
pm. . . . . . . . . . . . . . .  .  .  .  .  .  .  .  .  .  .  .  .  .  . .


e|---3---5---3---5---3---3---3---3--------------------------------------|
B|---0---0---0---0---0---0---0---0--------------------------------------|
G|---4---4---4---4---4---4---4---4--------------------------------------|
D|---5---5---5---5---5---5---5---5--------------------------------------|
A|----------------------------------------------------------------------|
E|----------------------------------------------------------------------|


pre-chorus x2

e|----------------------------------------------------------------------|
B|----------------------------------------------------------------------|
G|----------------------------------------------------------------------|
D|----------------------------------------------------------------------|
A|-7/9-9--7/9-9--7/9-9--7/9-9-----------7/9-9--7/9-9--7/9-9--7/9-9------|
E|-5/7-7--5/7-7--5/7-7--5/7-7-----------5/7-7--5/7-7--5/7-7--5/7-7------|


e|---3----------------5----------------3---------------5----------------|
B|---0----------------0----------------0---------------0----------------|
G|---4----------------4----------------4---------------4----------------|
D|---5----------------5----------------5---------------5----------------|
A|----------------------------------------------------------------------|
E|----------------------------------------------------------------------|

Chorus x2

e|----------------------------------------------------------------------|
B|-----------7-7-----------5-5-----------7-7---------------5------------|
G|--4--------7-7--4--------6-6--4--------7-7--4------------6------------|
D|---7-5-4-0-7-7---7-5-4-0-7-7---7-5-4-0-7-7---7-5-4-0-----7------------|
A|----------------------------------------------------------------------|
E|----------------------------------------------------------------------|


e|----------5-5-5-5-3-3-3-3-5-5-5-5-3-3-3-3-5-5-5-5-3-3-3-3-5-5-5-5-----|
B|--3-3-3-3-0-0-0-0-0-0-0-0-0-0-0-0-0-0-0-0-0-0-0-0-0-0-0-0-0-0-0-0-----|
G|--4-4-4-4-4-4-4-4-4-4-4-4-4-4-4-4-4-4-4-4-4-4-4-4-4-4-4-4-4-4-4-4-----|
D|--5-5-5-5-5-5-5-5-5-5-5-5-5-5-5-5-5-5-5-5-5-5-5-5-5-5-5-5-5-5-5-5-----|
A|----------------------------------------------------------------------|
E|----------------------------------------------------------------------|

Verse A x1

e|---------------------------------------------------------------------------|
B|---------------------------------------------------------------------------|
G|---------------------------------------------------------------------------|
D|---------------------------------------------------------------------------|
A|9-9-9-9-9-9-9-9-9-9-9-9-9-9-9-9--9--9--9--9--9--9--9--9--9--9--9--9--9--9--|
E|7-7-7-7-7-7-7-7-7-7-7-7-7-7-7-10-10-10-10-10-10-10-10-10-10-10-10-10-1010--|
pm. . . . . . . . . . . . . . .  .  .  .  .  .  .  .  .  .  .  .  .  .  . .

e|12-10--14-10--12-10--15-10--17-10--10-12-10---14-10--12-10--15-10--17-10|
B|-----10-----10-----10-----10-----10--------10------10-----10-----10-----|
G|------------------------------------------------------------------------|
D|------------------------------------------------------------------------|
A|------------------------------------------------------------------------|
E|------------------------------------------------------------------------|

Verse B x1

e|---------------------------------------------------------------------------|
B|---------------------------------------------------------------------------|
G|---------------------------------------------------------------------------|
D|---------------------------------------------------------------------------|
A|9-9-9-9-9-9-9-9-9-9-9-9-9-9-9-9--9--9--9--9--9--9--9--9--9--9--9--9--9--9--|
E|7-7-7-7-7-7-7-7-7-7-7-7-7-7-7-10-10-10-10-10-10-10-10-10-10-10-10-10-1010--|
pm. . . . . . . . . . . . . . .  .  .  .  .  .  .  .  .  .  .  .  .  .  . .


e|---3---5---3---5---5---5---3---5--------------------------------------|
B|---0---0---0---0---0---0---0---0--------------------------------------|
G|---4---4---4---4---4---4---4---4--------------------------------------|
D|---5---5---5---5---5---5---5---5--------------------------------------|
A|----------------------------------------------------------------------|
E|----------------------------------------------------------------------|


Verse C x1

e|---------------------------------------------------------------------------|
B|---------------------------------------------------------------------------|
G|---------------------------------------------------------------------------|
D|---------------------------------------------------------------------------|
A|9-9-9-9-9-9-9-9-9-9-9-9-9-9-9-9--9--9--9--9--9--9--9--9--9--9--9--9--9--9--|
E|7-7-7-7-7-7-7-7-7-7-7-7-7-7-7-10-10-10-10-10-10-10-10-10-10-10-10-10-1010--|


e|12-10--14-10--12-10--15-10--17-10--10-12-10---14-10--12-10--15-10--17-10|
B|-----10-----10-----10-----10-----10--------10------10-----10-----10-----|
G|------------------------------------------------------------------------|
D|------------------------------------------------------------------------|
A|------------------------------------------------------------------------|
E|------------------------------------------------------------------------|


Verse D x1

e|---------------------------------------------------------------------------|
B|---------------------------------------------------------------------------|
G|---------------------------------------------------------------------------|
D|---------------------------------------------------------------------------|
A|9-9-9-9-9-9-9-9-9-9-9-9-9-9-9-9--9--9--9--9--9--9--9--9--9--9--9--9--9--9--|
E|7-7-7-7-7-7-7-7-7-7-7-7-7-7-7-10-10-10-10-10-10-10-10-10-10-10-10-10-1010--|
pm. . . . . . . . . . . . . . .  .  .  .  .  .  .  .  .  .  .  .  .  .  . .


e|---5---5---3---5---5---5---3---5--------------------------------------|
B|---0---0---0---0---0---0---0---0--------------------------------------|
G|---4---4---4---4---4---4---4---4--------------------------------------|
D|---5---5---5---5---5---5---5---5--------------------------------------|
A|----------------------------------------------------------------------|
E|----------------------------------------------------------------------|

pre-chorus x2

e|----------------------------------------------------------------------|
B|----------------------------------------------------------------------|
G|----------------------------------------------------------------------|
D|----------------------------------------------------------------------|
A|-7/9-9--7/9-9--7/9-9--7/9-9-----------7/9-9--7/9-9--7/9-9--7/9-9------|
E|-5/7-7--5/7-7--5/7-7--5/7-7-----------5/7-7--5/7-7--5/7-7--5/7-7------|


e|---3----------------5----------------3---------------5----------------|
B|---0----------------0----------------0---------------0----------------|
G|---4----------------4----------------4---------------4----------------|
D|---5----------------5----------------5---------------5----------------|
A|----------------------------------------------------------------------|
E|----------------------------------------------------------------------|


Chorus x2

e|----------------------------------------------------------------------|
B|-----------7-7-----------5-5-----------7-7---------------5------------|
G|--4--------7-7--4--------6-6--4--------7-7--4------------6------------|
D|---7-5-4-0-7-7---7-5-4-0-7-7---7-5-4-0-7-7---7-5-4-0-----7------------|
A|----------------------------------------------------------------------|
E|----------------------------------------------------------------------|


e|----------5-5-5-5-3-3-3-3-5-5-5-5-3-3-3-3-5-5-5-5-3-3-3-3-5-5-5-5-----|
B|--3-3-3-3-0-0-0-0-0-0-0-0-0-0-0-0-0-0-0-0-0-0-0-0-0-0-0-0-0-0-0-0-----|
G|--4-4-4-4-4-4-4-4-4-4-4-4-4-4-4-4-4-4-4-4-4-4-4-4-4-4-4-4-4-4-4-4-----|
D|--5-5-5-5-5-5-5-5-5-5-5-5-5-5-5-5-5-5-5-5-5-5-5-5-5-5-5-5-5-5-5-5-----|
A|----------------------------------------------------------------------|
E|----------------------------------------------------------------------|


Bridge A x1

e|----------------------5-----------------------------5-----5-------------|
B|------------------------3--------------5--------------3-----3-----------|
G|-------6-6-6--6-7-4-4-----4----------6-6-6--6-7/4-4-----4-----4----------|
D|---9-9-7-7-7--7-7-5-5-----5------9-9-7-7-7--7-7/5-5----------------------|
A|-0-----------------------------0----------------------------------------|
E|------------------------------------------------------------------------|

Bridge B x2

e|--------------------5----5----------------------------5-----5-----------|
B|-----5-5-5------------3----3--------5-0-----5-----------3-----3---------|
G|-----6-6-6--6-7-4-4-----4----4------6---6-6-6-6-7/4-4-----4-----4--------|
D|-----7-7-7--7-7-5-5-----------------7-----7-7-7-7/5-5--------------------|
A|-0------------------------------0---------------------------------------|
E|------------------------------------------------------------------------|


Outro A x3

e|----------------------------------------------------------------------|
B|-----------7-7-----------5-5-----------7-7---------------5------------|
G|--4--------7-7--4--------6-6--4--------7-7--4------------6------------|
D|---7-5-4-0-7-7---7-5-4-0-7-7---7-5-4-0-7-7---7-5-4-0-----7------------|
A|----------------------------------------------------------------------|
E|----------------------------------------------------------------------|

e|----------5-5-5-5-3-3-3-3-5-5-5-5-3-3-3-3-5-5-5-5-3-3-3-3-5-5-5-5-----|
B|--3-3-3-3-0-0-0-0-0-0-0-0-0-0-0-0-0-0-0-0-0-0-0-0-0-0-0-0-0-0-0-0-----|
G|--4-4-4-4-4-4-4-4-4-4-4-4-4-4-4-4-4-4-4-4-4-4-4-4-4-4-4-4-4-4-4-4-----|
D|--5-5-5-5-5-5-5-5-5-5-5-5-5-5-5-5-5-5-5-5-5-5-5-5-5-5-5-5-5-5-5-5-----|
A|----------------------------------------------------------------------|
E|----------------------------------------------------------------------|

Outro A x1

e|----------------------------------------------------------------------|
B|-----------7-7-----------5-5-----------7-7-------------5-5------------|
G|--4--------7-7--4--------6-6--4--------7-7--4----------6-6------------|
D|---7-5-4-0-7-7---7-5-4-0-7-7---7-5-4-0-7-7---7-5-4-0---7-7------------|
A|----------------------------------------------------------------------|
E|----------------------------------------------------------------------|


| /  slide up
|   slide down
| h  hammer-on
| p  pull-off
| ~  vibrato
| +  harmonic
| x  Mute note
| *  Pinch harmonic
=========================================================================
comments
We did not receive enough feedback on this tab! Please rate:
print report bad tab
1 2 3 4 5
I want to post or [tab]
guest
You may want to rate the tab now too:
select rating
Please do not post tabs as comments. Select "correction" instead!