Oops, an error
Loading. Please wait.

Devil In Jersey City Tab

ver6
ver6
More versions @911Tabs.com
1,512 views 1 this week
no commentswrite comment
1 2 3 4 5
accurate
x 2
Autoscroll
+/-
esc
set tempo
stop
Contributor
WARNING: You are trying to view
                                    content from Ultimate-Guitar.com
                                    in an unauthorized application,
                                    which is prohibited.

                                    Please use an official Ultimate
                                    Guitar Tabs application for iPhone,
                                    iPad or Android to access legitimate
                                    chords, guitar, bass, and drum tabs
                                    from Ultimate-Guitar.com database.

                                    Type "ultimate guitar tabs" in Apple
                                    App Store's or Android Market's
                                    search to find the application.
 DEVIL IN JERSEY CITY
                        As recorded by Coheed and Cambria
                (From the 2002 Album SECOND STAGE TURBINE BLADE)

Words by Claudio Sanchez
Music by Coheed and Cambria
Transcribed by sprinklerthief

          B5                   DIX                  G5                   A5
      7 9 x x x x         10 9 x x x x          3 5 x x x x          5 7 x x x x

           A                   G6                    D                  A5/D
      x x 7 6 5 0          x x 5 4 3 0        x x 12 x 10 14       x x 12 x 10 12

       G(type 2)              Gadd9                Gadd6                  G
      x x 5 4 3 x          x x 5 4 3 5          x x 5 4 3 0          x x 5 4 3 3

      DIX(type 2)
     10 9 12 x x x

Gtr I (E A D G B E) - 'dist.'
Gtr II (E A D G B E) - 'dist.'
Gtr III (E A D G B E) - 'clean'
Gtr IV (E A D G B E) - 'clean. w/ delay (1 meas.)'
Gtr V (E A D G B E) - 'dist. (overdub)'

 Verse
  Moderate Rock Q=176
    B5                                      DIX(type
 1/4     4/4
    Gtrs I, V
  E E     +E  e e e e e e e   e e e e e e e  E
    |      |  | | | | | | |   | | | | | | |  |
    /      /  / / / / / / /   / / / / / / /  /

    Gtr II
              PM--------------------------|
  E E     +E  E E E E E E E   E E E E E E E  E
|-----||--------------------|------------------|
|-----||o-------------------|------------------|
|-----||--------------------|------------------|
|-----||--------------------|------------------|
|---9-||o-(9)-9-9-9-9-9-9-9-|-9-9-9-9-9-9-9--9-|
|---7-||--(7)-7-7-7-7-7-7-7-|-7-7-7-7-7-7-7-10-|


      2) DIX
   +E  E  e  e  e  e  e  e   e  e  e  e  e e e e
    |  |  |  |  |  |  |  |   |  |  |  |  | | | |
    /  /  /  /  /  /  /  /   /  /  /  /  / / / /

          PM---------------------------------|
   +Q     E  E  E  E  E  E   E  E  E  E  E E E E
|--------------------------|---------------------|
|--------------------------|---------------------|
|--------------------------|---------------------|
|--------------------------|---------------------|
|--(9)----9--9--9--9--9--9-|-9-10-12-12-10-9-0---|
|-(10)---10-10-10-10-10-10-|-0-10-10-10-10-0-0-0-|


  G5
   E  e  e  e  e  e  e  e    e  e  e  e  e  e  e  e
   |  |  |  |  |  |  |  |    |  |  |  |  |  |  |  |
   /  /  /  /  /  /  /  /    /  /  /  /  /  /  /  /

   E  E  E  E  E  E  E  E    E  E  E  E  E  E  E  E
|-12p10----14p10----12p10-|----15p10----17p10----10-|
|-------10-------10-------|-10-------10-------10----|
|-------------------------|-------------------------|
|-------------------------|-------------------------|
|-------------------------|-------------------------|
|-------------------------|-------------------------|


                                                B5
   e  e  e  e  e  e  E  E    E  E  E  E  Q    E E
   |  |  |  |  |  |  |  |    |  |  |  |  |    | |
   /  /  /  /  /  /  /  /    /  /  /  /  /    x /

   E  E  E  E  E  E  E  E    E  E  E  E  E  E E E
|-12p10----14p10----12p10-|----15p10----17p10-------||
|-------10-------10-------|-10-------10------------o||
|-------------------------|-------------------------||
|-------------------------|-------------------------||
|-------------------------|---------------------9--o||
|-------------------------|---------------------7---||


                                  DIX(type
  E E E E E E E E   E E E E E E E  E
  | | | | | | | |   | | | | | | |  |
  / / / / / / / /   / / / / / / /  /

  E E E E E E E E   E E E E E E E  E
|-----------------|------------------|
|-----------------|------------------|
|-----------------|------------------|
|-----------------|------------------|
|-9-9-9-9-9-9-9-9-|-9-9-9-9-9-9-9--9-|
|-7-7-7-7-7-7-7-7-|-7-7-7-7-7-7-7-10-|


      2)
   +E  E  E  E  E  E  E  E   E  E  E  E  E E  E  E
    |  |  |  |  |  |  |  |   |  |  |  |  | |  |
    /  /  /  /  /  /  /  /   /  /  /  /  / /  /

   +Q     E  E  E  E  E  E   E  E  E  E  E E  E  E
|--------------------------|------------------------|
|--------------------------|------------------------|
|--------------------------|------------------------|
|--------------------------|-----------------(0)----|
|--(9)----9--9--9--9--9--9-|-9-10-12-12-10-9--0-----|
|-(10)---10-10-10-10-10-10-|-0-10-10-10-10-0--0--0--|


  G5                                                                  B5
  Q   e e e E E E   E E E E E E E E   E E E E E E E E   E E E E Q   E E
  |   | | | | | |   | | | | | | | |   | | | | | | | |   | | | | |   | |
  /   / / / / / /   / / / / / / / /   / / / / / / / /   / / / / /   x /

  E E E E E E E E   E E E E E E E E   E E E E E E E E   E E E E E E E E
|-3-3-x-x-5-5-x-x-|-3-3-x-x-5-5-x-x-|-3-3-3-3-5-5-5-5-|-3-3-3-3-5-5------|
|-3-3-x-x-3-3-x-x-|-3-3-x-x-3-3-x-x-|-3-3-3-3-3-3-3-3-|-3-3-3-3-3-3-x----|
|-4-4-x-x-4-4-x-x-|-4-4-x-x-4-4-x-x-|-4-4-4-4-4-4-4-4-|-4-4-4-4-4-4-x----|
|-5-5-x-x-5-5-x-x-|-5-5-x-x-5-5-x-x-|-5-5-5-5-5-5-5-5-|-5-5-5-5-5-5-x----|
|-----------------|-----------------|-----------------|---------------9--|
|-----------------|-----------------|-----------------|---------------7--|


                                        DIX(type
  +E  E e e e e e e   e   e   e e e e e  E
   |  | | | | | | |   |   |   | | | | |  |
   /  / / / / / / /   /   /   / / / / /  /

        PM----------------------------|
                      |--3--|
  +E  E E E E E E E   E E   E E E E E E  E
|-------------------|----------------------|
|-------------------|----------------------|
|-------------------|----------------------|
|-------------------|----------------------|
|-(9)-9-9-9-9-9-9-9-|-9-9---9-9-9-9-9-9--9-|
|-(7)-7-7-7-7-7-7-7-|-7-7---7-7-7-7-7-7-10-|


      2) DIX
   +E  E  e  e  e  e  e  e    e    e     e  e  e  e e e
    |  |  |  |  |  |  |  |    |    |     |  |  |  | | |
    /  /  /  /  /  /  /  /    /    /     /  /  /  / / /

          PM-------------------------------------|
                              |---3---|
   +Q     E  E  E  E  E  E    E  E    E  E  E  E  E E E
|--------------------------|------------------------------|
|--------------------------|------------------------------|
|--------------------------|------------------------------|
|--------------------------|------------------------------|
|--(9)----9--9--9--9--9--9-|--9--9----9-10-12-12-10-9-----|
|-(10)---10-10-10-10-10-10-|-10-10---10-10-10-10-10-0-0---|


  G5                                                                  A5
  Q   E E E E E E   E E E E E E E E   E E E E E E E E   E E E E Q   E E
  |   | | | | | |   | | | | | | | |   | | | | | | | |   | | | | |   | |
  /   / / / / / /   / / / / / / / /   / / / / / / / /   / / / / /   / /

  E E E E E E E E   E E E E E E E E   E E E E E E E E   E E E E E E E E
|-3-3-x-x-5-5-x-x-|-3-3-x-x-5-5-x-x-|-3-3-3-3-5-5-5-5-|-3-3-3-3-5-5------||
|-3-3-x-x-3-3-x-x-|-3-3-x-x-3-3-x-x-|-3-3-3-3-3-3-3-3-|-3-3-3-3-3-3-x----||
|-4-4-x-x-4-4-x-x-|-4-4-x-x-4-4-x-x-|-4-4-4-4-4-4-4-4-|-4-4-4-4-4-4-x----||
|-5-5-x-x-5-5-x-x-|-5-5-x-x-5-5-x-x-|-5-5-5-5-5-5-5-5-|-5-5-5-5-5-5-x----||
|-----------------|-----------------|-----------------|---------------7--||
|-----------------|-----------------|-----------------|---------------5--||


 Interlude
  Slower Q=168
  B5        A5B5      A5B5    A5B5  A5      B5    A5B5    A5A5  B5      B5  Gadd6
                                                                            Gtr II
   W                  W                  W                  H..             E
                                                                            |
                                                                            /

  Gtrs I, II, V
  +E  E E E E E E E   E E E E E E E E   +E  E E E E E E E   E   E E E E E E E
|-------------------|-----------------|-------------------|--------------------|
|-------------------|-----------------|-------------------|--------------------|
|-------------------|-----------------|-------------------|--------------------|
|-------------------|-----------------|-------------------|--------------------|
|-(7)-9-9---7S9-9---|-7S9-9---7S9-x-7-|-(7)-9-9---7S9-9---|-7S==9-9---7S9-x-5--|
|-(5)-7-7---5S7-7---|-5S7-7---5S7-x-5-|-(5)-7-7---5S7-7---|-5S==7-7---5S7-x-3--|


                   Gadd9                G
  +H..             E   +H..             E
   |               |    |               |
   /               /    /               /

  +E   E E E E E E E   +E   E E E E E E E
|--------------------|--------------------|
|--------------------|--------------------|
|--------------------|--------------------|
|------0-7-5-4-------|------0-7-5-4-------|
|-(5)----------7-5-5-|-(5)----------7-5-5-|
|-(3)--------------3-|-(3)--------------3-|


                   Gadd9                A5
  +H..             E   +H..             E
   |               |    |
   /               /    /

                                        Gtrs I, II, V
  +E   E E E E E E E   +E   E E E E E E E
|--------------------|---------------------|
|--------------------|---------------------|
|--------------------|---------------------|
|------0-7-5-4-------|------0-7-5-4--------|
|-(5)----------7-5-5-|-(5)----------7-5-7--|
|-(3)--------------3-|-(3)--------------5--|


      B5    A5B5      A5B5    A5B5  A5      B5    A5B5      A5  B5    A5B5  Gadd6
                                                                            Gtr II
   W                  W                  W                  H..             E
                                                                            |
                                                                            /

  +E  E E E E E E E   E E E E E E E E   +E  E E E E E E E   E   E E E E E E E
|-------------------|-----------------|-------------------|--------------------|
|-------------------|-----------------|-------------------|--------------------|
|-------------------|-----------------|-------------------|--------------------|
|-------------------|-----------------|-------------------|--------------------|
|-(7)-9-9---7S9-9---|-7S9-9---7S9-x-7-|-(7)-9-9---7S9-9---|-7S==9-9---7S9-x-5--|
|-(5)-7-7---5S7-7---|-5S7-7---5S7-x-5-|-(5)-7-7---5S7-7---|-5S==7-7---5S7-x-3--|


                   Gadd9                G
   H..             E   +H..             E
   |               |    |               |
   /               /    /               /

  +E   E E E E E E E   +E   E E E E E E E
|--------------------|--------------------|
|--------------------|--------------------|
|--------------------|--------------------|
|------0-7-5-4-------|------0-7-5-4-------|
|-(5)----------7-5-5-|-(5)----------7-5-5-|
|-(3)--------------3-|-(3)--------------3-|


                   Gadd9
  +H..             E    W
   |               |
   /               /

  +E   E E E E E E E   +E  E E E E E E E
|--------------------|--------------------||
|--------------------|--------------------||
|--------------------|--------------------||
|------0-7-5-4-------|-----0-7-5-4--------||
|-(5)----------7-5-5-|-(5)---------7-5-7--||
|-(3)--------------3-|-(3)-------------5--||


 Pre-Chorus
                                        G5
                                                                  Gtrs I, II, V
      PM------------------------------------------------------|   TP
  +E  E E E E E E E   E E E E E E E E   E E E E E E E E   E E E E H
|-------------------|-----------------|-----------------|---------------||
|-------------------|-----------------|-----------------|---------------||
|-------------------|-----------------|-----------------|---------------||
|-------------------|-----------------|-----------------|---------------||
|-(7)-7-7-7-7-7-7-7-|-7-7-7-7-7-7-7-0-|-5-5-5-5-5-5-5-5-|-5-5-5-5-x\----||
|-(5)-5-5-5-5-5-5-5-|-5-5-5-5-5-5-5-0-|-3-3-3-3-3-3-3-3-|-3-3-3-3-x\----||


   Chorus
    Faster Q=172
    B5
   4/4
    Gtrs I, V
    E   E   E   E   E E E E   E   E   E   E   E E E E
    |   |   |   |   | | | |   |   |   |   |   | | | |
    /   /   /   /   / / / /   /   /   /   /   / / / /

    Gtr II
    |--3--| |--3--|           |--3--| |--3--|
    E E   E E E   E E E Q     E E   E E E   E E E Q
||--------------------------|-------------------------|
||o-------------------------|-------------------------|
||--0h4p==0---------7-7-----|-0h4p==0---------6-6-----|
||----------5p4p==0-7-7-----|---------5p4p==0-7-7-----|
||o-------------------------|-------------------------|
||--------------------------|-------------------------|


  A5                                          B5
  E   E   E   E   E E E E   E   E   E   E   E Q.
  |   |   |   |   | | | |   |   |   |   |   | |
  /   /   /   /   / / / /   /   /   /   /   / /

  |--3--| |--3--|           |--3--| |--3--|
  E E   E E E   E E E Q     E E   E E E   E E Q.
|-------------------------|------------------------|
|-------------------------|------------------------|
|-0h4p==0---------7-7-----|-0h4p==0---------6-6----|
|---------5p4p==0-7-7-----|---------5p4p==0-7-7----|
|-------------------------|------------------------|
|-------------------------|------------------------|


  1.
  G5
  E E E E  E  E E E    E  E E E E E E E
  | | | |  |  | | |    |  | | | | | | |
  / / / /  /  / / /    /  / / / / / / /

  H        H          +W
|----------5--------|-(5)---------------|
|----------3--------|-(3)---------------|
|----------4--------|-(4)---------------|
|-5-------(5)-------|-(5)---------------|
|-------------------|-------------------|
|-------------------|-------------------|


  E E E E  E  E E E    E  E E E E E E E
  | | | |  |  | | |    |  | | | | | | |
  / / / /  /  / / /    /  / / / / / / /

  H        H          +W
|-5-------(5)-------|-(5)----------------|
|-3--------3--------|-(3)----------------|
|-4--------4--------|-(4)----------------|
|-5--------5--------|-(5)----------------|
|-------------------|--------------------|
|-------------------|--------------------|


  A5                                  G5
  e e e e e e e e   e e e e e e e e   e e e e e e e e   e e e e e e e e
  | | | | | | | |   | | | | | | | |   | | | | | | | |   | | | | | | | |
  / / / / / / / /   / / / / / / / o   / / / / / / / /   / / / / / / / /

  PM------------------------------------------------------------------|
  E E E E E E E E   E E E E E E E E   E E E E E E E E   E E E E E E E E
|-----------------|-----------------|-----------------|-------------------||
|-----------------|-----------------|-----------------|------------------o||
|-----------------|-----------------|-----------------|-------------------||
|-----------------|-----------------|-----------------|-------------------||
|-7-7-7-7-7-7-7-7-|-7-7-7-7-7-7-7-0-|-5-5-5-5-5-5-5-5-|-5-5-5-5-5-5-5-5--o||
|-5-5-5-5-5-5-5-5-|-5-5-5-5-5-5-5-0-|-3-3-3-3-3-3-3-3-|-3-3-3-3-3-3-3-3---||


  2.
  G5                                                                   B5
  E E E e e e e e    e  e e e e e e e    e  e e e e e e e   Q   H    E E
  | | | | | | | |    |  | | | | | | |    |  | | | | | | |   |          |
  / / / / / / / /    /  / / / / / / /    /  / / / / / / /   /          /

                                                            TP
  H       H         +W                  +W                  H.       E E
|---------5-------|-(5)---------------|-(5)---------------|---------------||
|---------3-------|-(3)---------------|-(3)---------------|---------------||
|---------4-------|-(4)---------------|-(4)---------------|---------------||
|-5-------5-------|-(5)---------------|-(5)---------------|---------------||
|-----------------|-------------------|-------------------|-x\---------9--||
|-----------------|-------------------|-------------------|-x\---------7--||


 Verse 2
  A Tempo Q=176
                                        DIX(type
   E  E e e e e e e   e   e   e e e e e  E
   |  | | | | | | |   |   |   | | | | |  |
   /  / / / / / / /   /   /   / / / / /  /

      PM------------------------------|
                      |--3--|
  +E  E E E E E E E   E E   E E E E E E  E
|-------------------|----------------------|
|-------------------|----------------------|
|-------------------|----------------------|
|-------------------|----------------------|
|-(9)-9-9-9-9-9-9-9-|-9-9---9-9-9-9-9-9--9-|
|-(7)-7-7-7-7-7-7-7-|-7-7---7-7-7-7-7-7-10-|


      2) DIX
   +E  E  e  e  e  e  e  e   e  e  e  e  e e e e
    |  |  |  |  |  |  |  |   |  |  |  |  | | | |
    /  /  /  /  /  /  /  /   /  /  /  /  / / / /

          PM---------------------------------|
   +Q     E  E  E  E  E  E   E  E  E  E  E E E E
|--------------------------|----------------------|
|--------------------------|----------------------|
|--------------------------|----------------------|
|--------------------------|----------------------|
|--(9)----9--9--9--9--9--9-|-9-10-12-12-10-9-0----|
|-(10)---10-10-10-10-10-10-|-0-10-10-10-10-0-0-0--|


  G5
   Q     e  e  e  e  e  e    e  e  e  e  e  e  e  e
   |     |  |  |  |  |  |    |  |  |  |  |  |  |  |
   /     /  /  /  /  /  /    /  /  /  /  /  /  /  /

   E  E  E  E  E  E  E  E    E  E  E  E  E  E  E  E
|-12p10----14p10----12p10-|----15p10----17p10----10-|
|-------10-------10-------|-10-------10-------10----|
|-------------------------|-------------------------|
|-------------------------|-------------------------|
|-------------------------|-------------------------|
|-------------------------|-------------------------|


                                                B5
   e  e  e  e  e  e  E  E    E  E  E  E  Q    E E
   |  |  |  |  |  |  |  |    |  |  |  |  |    | |
   /  /  /  /  /  /  /  /    /  /  /  /  /    x /

   E  E  E  E  E  E  E  E    E  E  E  E  E  E E E
|-12p10----14p10----12p10-|----15p10----17p10------|
|-------10-------10-------|-10-------10------------|
|-------------------------|------------------------|
|-------------------------|------------------------|
|-------------------------|---------------------9--|
|-------------------------|---------------------7--|


                                    DIX(type
  +E  E e e e e e e   e e e e e e e  E
   |  | | | | | | |   | | | | | | |  |
   /  / / / / / / /   / / / / / / /  /

        PM------------------------|
  +E  E E E E E E E   E E E E E E E  E
|-------------------|------------------|
|-------------------|------------------|
|-------------------|------------------|
|-------------------|------------------|
|-(9)-9-9-9-9-9-9-9-|-9-9-9-9-9-9-9--9-|
|-(7)-7-7-7-7-7-7-7-|-7-7-7-7-7-7-7-10-|


      2)DIX
   +Q    e  e  e  e  e  e   e  e  e  e  e e E E
    |    |  |  |  |  |  |   |  |  |  |  | | | |
    /    /  /  /  /  /  /   /  /  /  /  / / / /

         PM---------------------------------|
   +Q    E  E  E  E  E  E   E  E  E  E  E E E E
|-------------------------|----------------------|
|-------------------------|----------------------|
|-------------------------|----------------------|
|-------------------------|----------------------|
|--(9)---9--9--9--9--9--9-|-9-10-12-12-10-9-0----|
|-(10)--10-10-10-10-10-10-|-0-10-10-10-10-0-0-0--|


  G5                                                                  B5
  E e e e e e e e   e e e e e e e e   e e e e e e E E   E E E E Q   E E
  | | | | | | | |   | | | | | | | |   | | | | | | | |   | | | | |   | |
  / / / / / / / /   / / / / / / / /   / / / / / / / /   / / / / /   x /

  E E E E E E E E   E E E E E E E E   E E E E E E E E   E E E E E E E E
|-5-5-x-x-5-5-x-x-|-3-3-x-x-5-5-x-x-|-5-5-x-x-5-5-x-x-|-3-3-x-x-5-5------|
|-3-3-x-x-3-3-x-x-|-3-3-x-x-3-3-x-x-|-3-3-x-x-3-3-x-x-|-3-3-x-x-3-3-x----|
|-4-4-x-x-4-4-x-x-|-4-4-x-x-4-4-x-x-|-4-4-x-x-4-4-x-x-|-4-4-x-x-4-4-x----|
|-5-5-x-x-5-5-x-x-|-5-5-x-x-5-5-x-x-|-5-5-x-x-5-5-x-x-|-5-5-x-x-5-5-x----|
|-----------------|-----------------|-----------------|---------------9--|
|-----------------|-----------------|-----------------|---------------7--|


                                    DIX(type
  +E  E E E E E E E   E E E E E E E  E
   |  | | | | | | |   | | | | | | |  |
   /  / / / / / / /   / / / / / / /  /

  +E  E E E E E E E   E E E E E E E  E
|-------------------|------------------|
|-------------------|------------------|
|-------------------|------------------|
|-------------------|------------------|
|-(9)-9-9-9-9-9-9-9-|-9-9-9-9-9-9-9--9-|
|-(7)-7-7-7-7-7-7-7-|-7-7-7-7-7-7-7-10-|


      2)
   +Q    E  E  E  E  E  E   E  E  E  E  E E  E  E
    |    |  |  |  |  |  |   |  |  |  |  | |  |  |
    /    /  /  /  /  /  /   /  /  /  /  / /  /  /

   +Q    E  E  E  E  E  E   E  E  E  E  E E  E  E
|-------------------------|------------------------|
|-------------------------|------------------------|
|-------------------------|------------------------|
|-------------------------|-----------------(0)----|
|--(9)---9--9--9--9--9--9-|-9-10-12-12-10-9--0-----|
|-(10)--10-10-10-10-10-10-|-0-10-10-10-10-0--0--0--|


  G5
   E  E  E  E  E  E  E  E    E  E  E  E  E  E  E  E
   |  |  |  |  |  |  |  |    |  |  |  |  |  |  |  |
   /  /  /  /  /  /  /  /    /  /  /  /  /  /  /  /

   E  E  E  E  E  E  E  E    E  E  E  E  E  E  E  E
|-12p10----14p10----12p10-|----15p10----17p10----10-|
|-------10-------10-------|-10-------10-------10----|
|-------------------------|-------------------------|
|-------------------------|-------------------------|
|-------------------------|-------------------------|
|-------------------------|-------------------------|


                                                B5
   E  E  E  E  E  E  E  E    E  E  E  E  Q    E E
   |  |  |  |  |  |  |  |    |  |  |  |  |    | |
   /  /  /  /  /  /  /  /    /  /  /  /  /    x /

   E  E  E  E  E  E  E  E    E  E  E  E  E  E E E
|-12p10----14p10----12p10-|----15p10----17p10------|
|-------10-------10-------|-10-------10------------|
|-------------------------|------------------------|
|-------------------------|------------------------|
|-------------------------|---------------------9--|
|-------------------------|---------------------7--|


                                        DIX(type
  +E  e e e e e e e   e   e   e e e e e  E
   |  | | | | | | |   |   |   | | | | |  |
   /  / / / / / / /   /   /   / / / / /  /

        PM----------------------------|
                      |--3--|
  +E  E E E E E E E   E E   E E E E E E  E
|-------------------|----------------------|
|-------------------|----------------------|
|-------------------|----------------------|
|-------------------|----------------------|
|-(9)-9-9-9-9-9-9-9-|-9-9---9-9-9-9-9-9--9-|
|-(7)-7-7-7-7-7-7-7-|-7-7---7-7-7-7-7-7-10-|


      2) DIX
   +E  E  e  e  e  e  e  e    e    e     e  e  E  E E E
    |  |  |  |  |  |  |  |    |    |     |  |  |  | | |
    /  /  /  /  /  /  /  /    /    /     /  /  /  / / /

          PM-------------------------------------|
                              |---3---|
   +Q     E  E  E  E  E  E    E  E    E  E  E  E  E E E
|--------------------------|------------------------------|
|--------------------------|------------------------------|
|--------------------------|------------------------------|
|--------------------------|------------------------------|
|--(9)----9--9--9--9--9--9-|--9--9----9-10-12-12-10-9-----|
|-(10)---10-10-10-10-10-10-|-10-10---10-10-10-10-10-0-0---|


  G5                                                                  A5
  E E e e e e e e   e e e e e e e e   e e e e E E E E   E E E E Q   E E
  | | | | | | | |   | | | | | | | |   | | | | | | | |   | | | | |   | |
  / / / / / / / /   / / / / / / / /   / / / / / / / /   / / / / /   x /

  E E E E E E E E   E E E E E E E E   E E E E E E E E   E E E E E E E E
|-3-3-x-x-5-5-x-x-|-5-5-x-x-5-5-x-x-|-5-5-5-5-5-5-5-5-|-3-3-3-3-3-3------||
|-3-3-x-x-3-3-x-x-|-3-3-x-x-3-3-x-x-|-3-3-3-3-3-3-3-3-|-3-3-3-3-3-3-x----||
|-4-4-x-x-4-4-x-x-|-4-4-x-x-4-4-x-x-|-4-4-4-4-4-4-4-4-|-4-4-4-4-4-4-x----||
|-5-5-x-x-5-5-x-x-|-5-5-x-x-5-5-x-x-|-5-5-5-5-5-5-5-5-|-5-5-5-5-5-5-x----||
|-----------------|-----------------|-----------------|---------------7--||
|-----------------|-----------------|-----------------|---------------5--||


 Interlude 2
  Slower Q=168
  A5  B5    A5B5      A5B5    A5B5  A5      B5    A5B5      A5  B5    A5B5  Gadd6
                                                                            Gtr II
   W                  W                  W                  H..             E
                                                                            |
                                                                            /

  Gtrs I, II, V
  +E  E E E E E E E   E E E E E E E E   +E  E E E E E E E   E   E E E E E E E
|-------------------|-----------------|-------------------|--------------------|
|-------------------|-----------------|-------------------|--------------------|
|-------------------|-----------------|-------------------|--------------------|
|-------------------|-----------------|-------------------|--------------------|
|-(7)-9-9---7S9-9---|-7S9-9---7S9-x-7-|-(7)-9-9---7S9-9---|-7S==9-9---7S9-x-5--|
|-(5)-7-7---5S7-7---|-5S7-7---5S7-x-5-|-(5)-7-7---5S7-7---|-5S==7-7---5S7-x-3--|


                   Gadd9                G
   H..             E   +H..             E
   |               |    |               |
   /               /    /               /

  +E   E E E E E E E   +E   E E E E E E E
|--------------------|--------------------|
|--------------------|--------------------|
|--------------------|--------------------|
|------0-7-5-4-------|------0-7-5-4-------|
|-(5)----------7-5-5-|-(5)----------7-5-5-|
|-(3)--------------3-|-(3)--------------3-|


                   Gadd9
  +H..             E   +H..             E
   |               |    |
   /               /    /

                                        Gtrs I, II, V
  +E   E E E E E E E   +E   E E E E E E E
|--------------------|---------------------|
|--------------------|---------------------|
|--------------------|---------------------|
|------0-7-5-4-------|------0-7-5-4--------|
|-(5)----------7-5-5-|-(5)----------7-5-7--|
|-(3)--------------3-|-(3)--------------5--|


      B5    A5B5      A5B5    A5B5  A5      B5    A5B5      A5  B5    A5B5  Gadd6
                                                                            Gtr II
   W                  W                  W                  H..             E
                                                                            |
                                                                            /

  +E  E E E E E E E   E E E E E E E E   +E  E E E E E E E   E   E E E E E E E
|-------------------|-----------------|-------------------|--------------------|
|-------------------|-----------------|-------------------|--------------------|
|-------------------|-----------------|-------------------|--------------------|
|-------------------|-----------------|-------------------|--------------------|
|-(7)-9-9---7S9-9---|-7S9-9---7S9-x-7-|-(7)-9-9---7S9-9---|-7S==9-9---7S9-x-5--|
|-(5)-7-7---5S7-7---|-5S7-7---5S7-x-5-|-(5)-7-7---5S7-7---|-5S==7-7---5S7-x-3--|


                   Gadd9                G
   H..             E   +H..             E
   |               |    |               |
   /               /    /               /

  +E   E E E E E E E   +E   E E E E E E E
|--------------------|--------------------|
|--------------------|--------------------|
|--------------------|--------------------|
|------0-7-5-4-------|------0-7-5-4-------|
|-(5)----------7-5-5-|-(5)----------7-5-5-|
|-(3)--------------3-|-(3)--------------3-|


                   Gadd9
  +H..             E    W
   |               |
   /               /

  +E   E E E E E E E   +E  E E E E E E E
|--------------------|--------------------||
|--------------------|--------------------||
|--------------------|--------------------||
|------0-7-5-4-------|-----0-7-5-4--------||
|-(5)----------7-5-5-|-(5)---------7-5-7--||
|-(3)--------------3-|-(3)-------------5--||


 Bridge 2
                                        G5
                                                              Gtrs I, II, V
      PM----------------------------------------------------| TP
  +E  E E E E E E E   E E E E E E E E   E E E E E E E E   E E H.
|-------------------|-----------------|-----------------|-----------||
|-------------------|-----------------|-----------------|-----------||
|-------------------|-----------------|-----------------|-----------||
|-------------------|-----------------|-----------------|-----------||
|-(7)-7-7-7-7-7-7-7-|-7-7-7-7-7-7-7-0-|-5-5-5-5-5-5-5-5-|-5-5-x\----||
|-(5)-5-5-5-5-5-5-5-|-5-5-5-5-5-5-5-0-|-3-3-3-3-3-3-3-3-|-3-3-x\----||


   Chorus 2
    Faster Q=172
    B5
   4/4
    Gtrs I, V
    E   E   E   E   E E E E   E   E   E   E   E E E E
    |   |   |   |   | | | |   |   |   |   |   | | | |
    /   /   /   /   / / / /   /   /   /   /   / / / /

    Gtr II
    |--3--| |--3--|           |--3--| |--3--|
    E E   E E E   E E E Q     E E   E E E   E E E Q
||--------------------------|-------------------------|
||o-------------------------|-------------------------|
||--0h4p==0---------7-7-----|-0h4p==0---------6-6-----|
||----------5p4p==0-7-7-----|---------5p4p==0-7-7-----|
||o-------------------------|-------------------------|
||--------------------------|-------------------------|


  A5                                          B5
  E   E   E   E   E E E E   E   E   E   E   E Q.
  |   |   |   |   | | | |   |   |   |   |   | |
  /   /   /   /   / / / /   /   /   /   /   / /

  |--3--| |--3--|           |--3--| |--3--|
  E E   E E E   E E E Q     E E   E E E   E E Q.
|-------------------------|------------------------|
|-------------------------|------------------------|
|-0h4p==0---------7-7-----|-0h4p==0---------6-6----|
|---------5p4p==0-7-7-----|---------5p4p==0-7-7----|
|-------------------------|------------------------|
|-------------------------|------------------------|


  1.
  G5
  E E E E E E E E   E E E E E E E E   E E E E E E E E   E E E E E E E E
  | | | | | | | |   | | | | | | | |   | | | | | | | |   | | | | | | | |
  / / / / / / / /   / / / / / / / /   / / / / / / / /   / / / / / / / /

  H       H         E Q   E H         E Q   E H         E Q   E H
|---------5-------|-x-x---x-5-------|-x-x---x-5-------|-x-x---x-5--------|
|---------3-------|-x-x---x-3-------|-x-x---x-3-------|-x-x---x-3--------|
|---------4-------|-x-x---x-4-------|-x-x---x-4-------|-x-x---x-4--------|
|-5-------5-------|-x-x---x-5-------|-x-x---x-5-------|-x-x---x-5--------|
|-----------------|-----------------|-----------------|------------------|
|-----------------|-----------------|-----------------|------------------|


  A5                                  G5
  e e e e e e e e   e e e e e e e e   e e e e e e e e   Q  H.
  | | | | | | | |   | | | | | | | |   | | | | | | | |   |
  / / / / / / / /   / / / / / / / o   / / / / / / / /   /

  PM------------------------------------------------|   TP TP
  E E E E E E E E   E E E E E E E E   E E E E E E E E   Q  H.
|-----------------|-----------------|-----------------|-----------||
|-----------------|-----------------|-----------------|----------o||
|-----------------|-----------------|-----------------|-----------||
|-----------------|-----------------|-----------------|-----------||
|-7-7-7-7-7-7-7-7-|-7-7-7-7-7-7-7-0-|-5-5-5-5-5-5-5-5-|-xs=x\----o||
|-5-5-5-5-5-5-5-5-|-5-5-5-5-5-5-5-0-|-3-3-3-3-3-3-3-3-|-xs=x\-----||


  2.
  G5
                                                                        >
  H       H         E Q   E E     E Q     E E E E E E E E   W          +W
|---------5-------|-x-x---x-------------|-5-5-5-5-5-5-5-5-|-5--------|-(5)----||
|---------3-------|-x-x---x-------------|-3-3-3-3-3-3-3-3-|-3--------|-(3)----||
|---------4-------|-x-x---x-5b5.5p0-----|-4-4-4-4-4-4-4-4-|-4--------|-(4)----||
|-5-------5-------|-x-x---x-------------|-5-5-5-5-5-5-5-5-|-5--------|-(5)----||
|-----------------|---------------------|-----------------|----------|--------||
|-----------------|---------------------|-----------------|----------|--------||
|
| Gtrs I, V
| E E E E E E E E   E E E E E     E E E   E E E E E E E E   W          +W
|-----------------|---------------------|-----------------|----------|--------||
|-----------------|---------------------|-----------------|----------|--------||
|-----------------|---------------------|-----------------|----------|--------||
|-----------------|---------------------|-----------------|----------|--------||
|-5-5-5-5-5-5-5-5-|-5-5-5-5-5-----5-5-5-|-5-5-5-5-5-5-5-5-|-5--------|-(5)----||
|-3-3-3-3-3-3-3-3-|-3-3-3-3-3-----3-3-3-|-3-3-3-3-3-3-3-3-|-3--------|-(3)----||


 Guitar Break
  Slower Q=164
  A                                             G6      Gadd9
  Gtr III
   H     Q.   E   +E  E Q  Q  E E    E   E   a  Q  Q.   E   +Q   E E  E  Q.
|---------------|-----0-0--0--0-0-|--0--(0)-(0)-0--0----5-|-(5)---------------|
|---------------|-----5-5--5--5-5-|--5--(5)-(5)s3--3------|------3---(3)------|
|--------6----6-|-(6)-6-6--6--6-6-|--6h==7---6s=4--4------|--------4-----4----|
|---------------|----------7--7-7-|--7--(7)-(7)s5--5------|-------------------|
|---------------|-----------------|-----------------------|-------------------|
|--0------------|-----------------|-----------------------|-------------------|
|
| Gtrs I, V
|  >
| +W              +W                +W                      +W
|---------------|-----------------|-----------------------|-------------------|
|---------------|-----------------|-----------------------|-------------------|
|---------------|-----------------|-----------------------|-------------------|
|---------------|-----------------|-----------------------|-------------------|
|-(5)-----------|-(5)-------------|-(5)-------------------|-(5)---------------|
|-(3)-----------|-(3)-------------|-(3)-------------------|-(3)---------------|


  A                                         G6      Gadd9
  H    Q.   E   +E  E Q  Q  E E   E  E   a  Q  Q.   E   +Q   E E Q  E E
|-------------|-----0-0--0--0-0-|-0-(0)-(0)-0--0----5-|-(5)------5------|
|-------------|-----5-5--5--5-5-|-5-(5)-(5)s3--3------|------3------3---|
|------6----6-|-(6)-6-6--6--6-6-|-6h=7---6s=4--4------|--------4------4-|
|-------------|----------7--7-7-|-7-(7)-(7)s5--5------|-----------------|
|-------------|-----------------|---------------------|-----------------|
|-0-----------|-----------------|---------------------|-----------------|


    A                                          G6       Gadd9
    H    Q.   E   +E  E Q  Q   E E   E  E   a  Q  Q.    E   +Q   E E Q  E E
||--------------|-----0-0--0---0-0-|-0-(0)-(0)-0--0-----5-|-(5)------5-------|
||o-------------|-----5-5--5---5-5-|-5-(5)-(5)s3--3-------|------3------3----|
||-------6----6-|-(6)-6-6--6---6-6-|-6h=7---6s=4--4-------|--------4------4--|
||--------------|----------7---7-7-|-7-(7)-(7)s5--5-------|------------------|
||o-------------|------------------|----------------------|------------------|
||--0-----------|------------------|----------------------|------------------|
|
|   Gtr IV
|   H    H         H       Q.    E   E  E      H      E E    Q.    E Q  Q
||--------------|------------------|----------------------|------------------|
||o-------------|------------------|----------------------|------------------|
||--------------|------------------|----------------------|------------------|
||-------7------|--5-------4-------|------------------7-7-|--7-----7-7s=0----|
||o-5-----------|----------------5-|-7h=9------5----------|------------------|
||--------------|------------------|----------------------|------------------|


  A
  H       Q.     E   +E  E Q   Q   E E
|------------------|-----0-0---0---0-0-|
|------------------|-----5-5---5---5-5-|
|---------6------6-|-(6)-6-6---6---6-6-|
|------------------|-----------7---7-7-|
|------------------|-------------------|
|-0----------------|-------------------|
|
| E E E E E  E E E    E  E E E E E E E
|------------------|-------------------|
|------------------|-------------------|
|------------------|-------------------|
|-2-2-2-2-2--2-2-2-|--2--2-2-2s7-7-7-7-|
|------------------|-------------------|
|------------------|-------------------|


            G6       Gadd9
  E  E   a  Q  Q.    E   +Q    E E Q   E E
|-0-(0)-(0)-0--0-----5-|-(5)-------5--------||
|-5-(5)-(5)s3--3-------|-------3-------3---o||
|-6h=7---6s=4--4-------|---------4-------4--||
|-7-(7)-(7)s5--5-------|--------------------||
|----------------------|-------------------o||
|----------------------|--------------------||
|
| E  E      Q  Q   E E    E  Q   Q   E E E
|----------------------|-----2---2----------||
|------------------2-3-|--3----------3s7---o||
|----------------------|--------------------||
|-7p=0------0--0-------|--------------------||
|----------------------|-------------------o||
|----------------------|--------------------||


  A5                      G5
  Gtr IV
  W          +W           W          +W
|----------|------------|----------|--------||
|----------|------------|----------|--------||
|----------|------------|----------|--------||
|----------|------------|----------|--------||
|-7--------|-(7)--------|-5--------|-(5)----||
|-5--------|-(5)--------|-3--------|-(3)----||


   Out-Chorus
      Faster Q=172
    B5
    Gtr I
    |-3--|  |-3--|              |-3--|  |-3--|
    E  E E  E  E E  E  E  E E   E  E E  E  E E  E  E  E E
||----------------------------|---------------------------|
||o----------------19-19------|----------------17-17------|
||--0h16p0--------------------|-0h16p0--------------------|
||---------17p16p0-------16-0-|--------17p16p0-------16-0-|
||o---------------------------|---------------------------|
||----------------------------|---------------------------|
|
|   Gtr V
|   |-3--|  |-3--|              |-3--|  |-3--|
|   E  E E  E  E E  E  E  Q     E  E E  E  E E  E  E  Q
||----------------------------|---------------------------|
||o---------------------------|---------------------------|
||--0h=4p0----------7--7------|-0h=4p0----------6--6------|
||----------5p=4p0--7--7------|---------5p=4p0--7--7------|
||o---------------------------|---------------------------|
||----------------------------|---------------------------|


  A5
  |-3--|  |-3--|              |-3--|  |-3--|
  E  E E  E  E E  E  E  E E   E  E E  E  E E  E  Q.
|---------------------------|--------------------------|
|----------------19-19------|----------------17-17\----|
|-0h16p0--------------------|-0h16p0-------------------|
|--------17p16p0-------16-0-|--------17p16p0-----------|
|---------------------------|--------------------------|
|---------------------------|--------------------------|
|
| |-3--|  |-3--|              |-3--|  |-3--|
| E  E E  E  E E  E  E  Q     E  E E  E  E E  E  Q.
|---------------------------|--------------------------|
|---------------------------|--------------------------|
|-0h=4p0----------7--7------|-0h=4p0----------6--6\----|
|---------5p=4p0--7--7------|---------5p=4p0--7--7\----|
|---------------------------|--------------------------|
|---------------------------|--------------------------|


          Gadd9
  Gtr II
  H       H         E Q   E H         E Q   E H         E Q   E H
  |       |         | |   | |         | |   | |         | |   | |
  o       /         x x   x /         x x   x /         x x   x /

  E E E E E E E E   E E E E E E E E   E E E E E E E E   E E E E E E E E   3x
|-----------------|-----------------|-----------------|-------------------||
|-----------------|-----------------|-----------------|------------------o||
|-----------------|-----------------|-----------------|-------------------||
|-----------------|-----------------|-----------------|-------------------||
|-5-5-5-5-5-5-5-5-|-5-5-5-5-5-5-5-5-|-5-5-5-5-5-5-5-5-|-5-5-5-5-5-5-5-5--o||
|-3-3-3-3-3-3-3-3-|-3-3-3-3-3-3-3-3-|-3-3-3-3-3-3-3-3-|-3-3-3-3-3-3-3-3---||


  B5
  |-3--|  |-3--|              |-3--|  |-3--|
  E  E E  E  E E  E  E  E E   E  E E  E  E E  E  E  E E
|---------------------------|---------------------------|
|----------------19-19------|----------------17-17------|
|-0h16p0--------------------|-0h16p0--------------------|
|--------17p16p0-------16-0-|--------17p16p0-------16-0-|
|---------------------------|---------------------------|
|---------------------------|---------------------------|
|
| Gtr II
| |-3--|  |-3--|              |-3--|  |-3--|
| E  E E  E  E E  E  E  Q     E  E E  E  E E  E  E  Q
|---------------------------|---------------------------|
|---------------------------|---------------------------|
|-0h=4p0----------7--7------|-0h=4p0----------6--6------|
|---------5p=4p0--7--7------|---------5p=4p0--7--7------|
|---------------------------|---------------------------|
|---------------------------|---------------------------|


  A5
  |-3--|  |-3--|              |-3--|  |-3--|
  E  E E  E  E E  E  E  E E   E  E E  E  E E  E  E Q
|---------------------------|-------------------------*|
|----------------19-19------|----------------17-17----*|
|-0h16p0--------------------|-0h16p0------------------*|
|--------17p16p0-------16-0-|--------17p16p0----------*|
|---------------------------|-------------------------*|
|---------------------------|-------------------------*|
|
| |-3--|  |-3--|              |-3--|  |-3--|
| E  E E  E  E E  E  E  Q     E  E E  E  E E  E  E Q
|---------------------------|-------------------------*|
|---------------------------|-------------------------*|
|-0h=4p0----------7--7------|-0h=4p0----------6--6----*|
|---------5p=4p0--7--7------|---------5p=4p0--7--7----*|
|---------------------------|-------------------------*|
|---------------------------|-------------------------*|


Duration Legend
---------------
W - whole; H - half; Q - quarter; E - 8th; S - 16th; T - 32nd; X - 64th; a - acciaccatura
+ - note tied to previous; . - note dotted; .. - note double dotted
Uncapitalized letters represent notes that are staccato (1/2 duration)
Irregular groupings are notated above the duration line
Duration letters will always appear directly above the note/fret number it represents the
duration for.  Duration letters with no fret number below them represent rests.  Multi-
bar rests are notated in the form Wxn, where n is the number of bars to rest for.  Low
melody durations appear below the staff

Tablature Legend
----------------
 h   - hammer-on
 p   - pull-off
 b   - bend
 pb  - pre-bend
 r   - bend release (if no number after the r, then release immediately)
 /\  - slide into or out of (from/to "nowhere")
 s   - legato slide
 S   - shift slide
  - natural harmonic
[n]  - artificial harmonic
n(n) - tapped harmonic
 ~   - vibrato
 tr  - trill
 T   - tap
 TP  - trem. picking
 PM  - palm muting
\n/  - tremolo bar dip; n = amount to dip
 \n  - tremolo bar down
 n/  - tremolo bar up
/n\  - tremolo bar inverted dip
 =   - hold bend; also acts as connecting device for hammers/pulls
 <>  - volume swell (louder/softer)
 x   - on rhythm slash represents muted slash
 o   - on rhythm slash represents single note slash

Misc Legend
-----------
 |  - bar
||  - double bar
||o - repeat start
o|| - repeat end
*|  - double bar (ending)
 :  - bar (freetime)
 $  - Segno
 &  - Coda
Tempo markers -  = BPM(8/16=s8/s16), where s8 = swing 8ths, s16 = swing 16ths

comments
We did not receive enough feedback on this tab! Please rate:
print report bad tab
1 2 3 4 5
I want to post or [tab]
guest
You may want to rate the tab now too:
select rating
Please do not post tabs as comments. Select "correction" instead!