Oops, an error
Loading. Please wait.

Everything Evil Tab

ver3
ver3
More versions @911Tabs.com
33,729 views 43 this week
4 commentsread comments
1 2 3 4 5
accurate
x 14
Autoscroll
+/-
esc
set tempo
stop
Contributor
Hey! There's an official Ultimate Guitar app which is ideal
for learning songs when you're away from computer. Get the app
WARNING: You are trying to view
                                    content from Ultimate-Guitar.com
                                    in an unauthorized application,
                                    which is prohibited.

                                    Please use an official Ultimate
                                    Guitar Tabs application for iPhone,
                                    iPad or Android to access legitimate
                                    chords, guitar, bass, and drum tabs
                                    from Ultimate-Guitar.com database.

                                    Type "ultimate guitar tabs" in Apple
                                    App Store's or Android Market's
                                    search to find the application.
-----------------------------------------------------------------------
                     Everything Evil - Coheed and Cambria
-----------------------------------------------------------------------
Tabbed by:toxicmedacation
Email:metalguy177@yahoo.com

Tuning:standard


A classic to the Die hard coheed fans, enjoy. Keep in mind this is the album version,

not the live version.


Rhythm (Claudio)


verse A x3

e|----------------------------------------------------------------------|
B|----------------------------------------------------------------------|
G|-----------------------------------------------------0-----0----------|
D|-------------------------------------------------------7-----0--------|
A|-9-9--9-9--------9-9-7-7----7-------10-10--10-10---9-----9------------|
E|-7-7--7-7------7---------10---9-10--7--7---7--7-----------------------|
pm . .  . .      . . . . . .  . . .   .  .   .  .    . . . . . .

e|----------------------------------------------------------------------|
B|----------------------------------------------------------------------|
G|----------------------------------------------------------------------|
D|----------------------------------------------------------------------|
A|-5-5--5-5------5-5-4-5-7-5-4-----5-5-----5-5-4-5-7-5-4----------------|
E|-3-3--3-3----3---------------5---3-3---3---------------5--------------|
pm . .  . .    . . . . . . . . .   . .   . . . . . . . . .

verse B x1

e|----------------------------------------------------------------------|
B|----------------------------------------------------------------------|
G|-----------------------------------------------------0-----0----------|
D|-------------------------------------------------------7-----0--------|
A|-9-9--9-9--------9-9-7-7----7-------10-10--10-10---9-----9------------|
E|-7-7--7-7------7---------10---9-10--7--7---7--7-----------------------|
pm . .  . .      . . . . . .  . . .   .  .   .  .    . . . . . .

e|----------------------------------------------------------------------|
B|----------------------------------------------------------------------|
G|----------------------------------------------------------------------|
D|----------------------------------------------------------------------|
A|-5-5--5-5------5-5-4-5-7-5-4-----5-5--5-5-----------------------------|
E|-3-3--3-3----3---------------5---3-3--3-3-----------------------------|
pm . .  . .    . . . . . . . . .

verse C x2

e|----------------------------------------------------------------------|
B|----------------------------------------------------------------------|
G|-----------------------------------------------------0-----0----------|
D|-------------------------------------------------------7-----0--------|
A|-9-9--9-9--------9-9-7-7----7-------10-10--10-10---9-----9------------|
E|-7-7--7-7------7---------10---9-10--7--7---7--7-----------------------|


e|----------------------------------------------------------------------|
B|----------------------------------------------------------------------|
G|----------------------------------------------------------------------|
D|----------------------------------------------------------------------|
A|-5-5--5-5------5-5-4-5-7-5-4-----5-5-----5-5-4-5-7-5-4----------------|
E|-3-3--3-3----3---------------5---3-3---3---------------5--------------|

e|----------------------------------------------------------------------|
B|----------------------------------------------------------------------|
G|-----------------------------------------------------0-----0----------|
D|-------------------------------------------------------7-----0--------|
A|-9-9--9-9--------9-9-7-7----7-------10-10--10-10---9-----9------------|
E|-7-7--7-7------7---------10---9-10--7--7---7--7-----------------------|


e|----------------------------------------------------------------------|
B|----------------------------------------------------------------------|
G|----------------------------------------------------------------------|
D|----------------------------------------------------------------------|
A|-5-5--5-5------5-5-4-5-7-5-4-----5-5--5-5-----------------------------|
E|-3-3--3-3----3---------------5---3-3--3-3-----------------------------|

verse D x1

e|----------------------------------------------------------------------|
B|----------------------------------------------------------------------|
G|-----------------------------------------------------0-----0----------|
D|-------------------------------------------------------7-----0--------|
A|-9-9--9-9--------9-9-7-7----7-------10-10--10-10---9-----9------------|
E|-7-7--7-7------7---------10---9-10--7--7---7--7-----------------------|
pm . .  . .      . . . . . .  . . .   .  .   .  .    . . . . . .

e|----------------------------------------------------------------------|
B|----------------------------------------------------------------------|
G|----------------------------------------------------------------------|
D|----------------------------------------------------------------------|
A|-5-5--5-5------5-5-4-5-7-5-4-----5-5-----5-5-4-5-7-5-4----------------|
E|-3-3--3-3----3---------------5---3-3---3---------------5--------------|
pm . .  . .    . . . . . . . . .   . .   . . . . . . . . .

e|----------------------------------------------------------------------|
B|----------------------------------------------------------------------|
G|-----------------------------------------------------0-----0----------|
D|-------------------------------------------------------7-----0--------|
A|-9-9--9-9--------9-9-7-7----7-------10-10--10-10---9-----9------------|
E|-7-7--7-7------7---------10---9-10--7--7---7--7-----------------------|
pm . .  . .      . . . . . .  . . .   .  .   .  .    . . . . . .

e|----------------------------------------------------------------------|
B|----------------------------------------------------------------------|
G|----------------------------------------------------------------------|
D|----------------------------------------------------------------------|
A|-5-5--5-5------5-5-4-5-7-5-4-----5-5-----5-5-4-5-7-5-4----------------|
E|-3-3--3-3----3---------------5---3-3---3---------------5--------------|
pm . .  . .    . . . . . . . . .


verse E x2

e|----------------------------------------------------------------------|
B|----------------------------------------------------------------------|
G|-----------------------------------------------------0-----0----------|
D|-------------------------------------------------------7-----0--------|
A|-9-9--9-9--------9-9-7-7----7-------10-10--10-10---9-----9------------|
E|-7-7--7-7------7---------10---9-10--7--7---7--7-----------------------|


e|----------------------------------------------------------------------|
B|----------------------------------------------------------------------|
G|----------------------------------------------------------------------|
D|----------------------------------------------------------------------|
A|-5-5--5-5------5-5-4-5-7-5-4-----5-5-----5-5-4-5-7-5-4----------------|
E|-3-3--3-3----3---------------5---3-3---3---------------5--------------|


Chorus A x1

e|----------------------------------------------------------------------|
B|----------------------------------------------------------------------|
G|----------------------------------------------------------------------|
D|----------------------------------------------------------------------|
A|-5-5-5-5-5-5-5-5-5-5-5-5-5--5--5-5-5-5-5-5-5-5-5-5-5-5--5-------------|
E|-3-3-3-3-3-3-3-3-3-3-3-3-3--2--0-0-0-0-0-0-0-0-0-0-0-0--2-------------|
pm     .     .     .     .             .   . .     . .

e|----------------------------------------------------------------------|
B|----------------------------------------------------------------------|
G|----------------------------------------------------------------------|
D|----------------------------------------------------------------------|
A|-5-5-5-5-5-5-5-5-5-5-5-5---5--5-5-5-5-5-5-5-5-5-5-5-5--5--------------|
E|-3-3-3-3-3-3-3-3-3-3-3-3---2--0-0-0-0-0-0-0-0-0-0-0-0--2--------------|
pm       .   . .     . .              .   . .     . .

e|----------------------------------------------------------------------|
B|----------------------------------------------------------------------|
G|----------------------------------------------------------------------|
D|----------------------------------------------------------------------|
A|-5-5-5-5-5-5-5-5-5-5-5-5---5--5-5-5-5-5-5-5-5-5-5-5-5--5--------------|
E|-3-3-3-3-3-3-3-3-3-3-3-3---2--0-0-0-0-0-0-0-0-0-0-0-0--2--------------|
pm       .   . .     . .              .   . .     . .


Chorus B x1

e|----------------------------------------------------------------------|
B|----------------------------------------------------------------------|
G|----------------------------------------------------------------------|
D|----------------------------------------------------------------------|
A|-5-5-5-5-5-5-5-5-5-5-5-5-5--5--5-5-5-5-5-5-5-5-5-5-5-5----------------|
E|-3-3-3-3-3-3-3-3-3-3-3-3-3--2--0-0-0-0-0-0-0-0-0-0-0-0----------------|
pm     .     .     .     .             .   . .     . .

Chorus ending x1

e|-------------------------------------------------------------------------|
B|-------------------------------------------------------------------------|
G|-------------------------------------------------------------------------|
D|10-10-10-10-10-10-10-10-10-10-10-10-10-10-10-9--9--9--9--9--9--9--9--9-\-|
A|10-10-10-10-10-10-10-10-10-10-10-10-10-10-10-10-10-10-10-10-10-10-10-10\-|
E|8--8--8--8--8--8--8--8--8--8--8--8--8--8--8--8--8--8--8--8--8--8--8--8-\-|
pm      .        .        .        .        .        .        .

verse A x1

e|----------------------------------------------------------------------|
B|----------------------------------------------------------------------|
G|-----------------------------------------------------0-----0----------|
D|-------------------------------------------------------7-----0--------|
A|-9-9--9-9--------9-9-7-7----7-------10-10--10-10---9-----9------------|
E|-7-7--7-7------7---------10---9-10--7--7---7--7-----------------------|
pm . .  . .      . . . . . .  . . .   .  .   .  .    . . . . . .

e|----------------------------------------------------------------------|
B|----------------------------------------------------------------------|
G|----------------------------------------------------------------------|
D|----------------------------------------------------------------------|
A|-5-5--5-5------5-5-4-5-7-5-4-----5-5-----5-5-4-5-7-5-4----------------|
E|-3-3--3-3----3---------------5---3-3---3---------------5--------------|
pm . .  . .    . . . . . . . . .   . .   . . . . . . . . .

verse D x1

e|----------------------------------------------------------------------|
B|----------------------------------------------------------------------|
G|-----------------------------------------------------0-----0----------|
D|-------------------------------------------------------7-----0--------|
A|-9-9--9-9--------9-9-7-7----7-------10-10--10-10---9-----9------------|
E|-7-7--7-7------7---------10---9-10--7--7---7--7-----------------------|
pm . .  . .      . . . . . .  . . .   .  .   .  .    . . . . . .

e|----------------------------------------------------------------------|
B|----------------------------------------------------------------------|
G|----------------------------------------------------------------------|
D|----------------------------------------------------------------------|
A|-5-5--5-5------5-5-4-5-7-5-4-----5-5-----5-5-4-5-7-5-4----------------|
E|-3-3--3-3----3---------------5---3-3---3---------------5--------------|
pm . .  . .    . . . . . . . . .

verse E x2

e|----------------------------------------------------------------------|
B|----------------------------------------------------------------------|
G|-----------------------------------------------------0-----0----------|
D|-------------------------------------------------------7-----0--------|
A|-9-9--9-9--------9-9-7-7----7-------10-10--10-10---9-----9------------|
E|-7-7--7-7------7---------10---9-10--7--7---7--7-----------------------|


e|----------------------------------------------------------------------|
B|----------------------------------------------------------------------|
G|----------------------------------------------------------------------|
D|----------------------------------------------------------------------|
A|-5-5--5-5------5-5-4-5-7-5-4-----5-5-----5-5-4-5-7-5-4----------------|
E|-3-3--3-3----3---------------5---3-3---3---------------5--------------|


Chorus A x1

e|----------------------------------------------------------------------|
B|----------------------------------------------------------------------|
G|----------------------------------------------------------------------|
D|----------------------------------------------------------------------|
A|-5-5-5-5-5-5-5-5-5-5-5-5-5--5--5-5-5-5-5-5-5-5-5-5-5-5--5-------------|
E|-3-3-3-3-3-3-3-3-3-3-3-3-3--2--0-0-0-0-0-0-0-0-0-0-0-0--2-------------|
pm     .     .     .     .             .   . .     . .

e|----------------------------------------------------------------------|
B|----------------------------------------------------------------------|
G|----------------------------------------------------------------------|
D|----------------------------------------------------------------------|
A|-5-5-5-5-5-5-5-5-5-5-5-5---5--5-5-5-5-5-5-5-5-5-5-5-5--5--------------|
E|-3-3-3-3-3-3-3-3-3-3-3-3---2--0-0-0-0-0-0-0-0-0-0-0-0--2--------------|
pm       .   . .     . .              .   . .     . .

e|----------------------------------------------------------------------|
B|----------------------------------------------------------------------|
G|----------------------------------------------------------------------|
D|----------------------------------------------------------------------|
A|-5-5-5-5-5-5-5-5-5-5-5-5---5--5-5-5-5-5-5-5-5-5-5-5-5--5--------------|
E|-3-3-3-3-3-3-3-3-3-3-3-3---2--0-0-0-0-0-0-0-0-0-0-0-0--2--------------|
pm       .   . .     . .              .   . .     . .


Chorus B x1

e|----------------------------------------------------------------------|
B|----------------------------------------------------------------------|
G|----------------------------------------------------------------------|
D|----------------------------------------------------------------------|
A|-5-5-5-5-5-5-5-5-5-5-5-5-5--5--5-5-5-5-5-5-5-5-5-5-5-5----------------|
E|-3-3-3-3-3-3-3-3-3-3-3-3-3--2--0-0-0-0-0-0-0-0-0-0-0-0----------------|
pm     .     .     .     .             .   . .     . .

Chorus ending x1

e|-------------------------------------------------------------------------|
B|-------------------------------------------------------------------------|
G|-------------------------------------------------------------------------|
D|10-10-10-10-10-10-10-10-10-10-10-10-10-10-10-9--9--9--9--9--9--9--9--9---|
A|10-10-10-10-10-10-10-10-10-10-10-10-10-10-10-10-10-10-10-10-10-10-10-10--|
E|8--8--8--8--8--8--8--8--8--8--8--8--8--8--8--8--8--8--8--8--8--8--8--8---|
pm      .        .        .        .        .        .        .

bridge x4

e|----------------------------------------------------------------------|
B|----------------------------------------------------------------------|
G|----------------------------------------------------------------------|
D|----------------------------------------------------------------------|
A|-11-11--11-12-11-11-11--11-11--11-11--11-11--14-14--14-14-------------|
E|-9--9---9--9--0--0--0---0--0---12-12--12-12--11-11--11-11-------------|

e|------------------------------------------------------------------------|
B|------------------------------------------------------------------------|
G|------------------------------------------------------------------------|
D|---*-*------------------------------------------------------------------|
A|---7-6---*----9-9--9-9/11-7-7--7-7--7-7--7-7--7-7--7-7--7-7--7-7---------|
E|-7-----7-9-7--7-7--7-7/9--5-5--5-5--4-5--5-5--4-5--5-5--5-5--5-5---------|

outro A x1

e|----------------------------------------------------------------------|
B|----------------------------------------------------------------------|
G|----------------------------------------------------------------------|
D|---------------------------------4-4-4-4-4-4-4-4-4-4-4-4-4-4-4-4------|
A|-2-2-2-2-2-2-2-2-2-2-2-2-2-2-2-2-2-2-2-2-2-2-2-2-2-2-2-2-2-2-2-2------|
E|-0-0-0-0-0-0-0-0-0-0-0-0-0-0-0-0--------------------------------------|
pm . . . . . . . . . . . . . . . . . . . . . . . . . . . . . . . .

e|----------------------------------------------------------------------|
B|----------------------------------------------------------------------|
G|----------------------------------------------------------------------|
D|----------------------------------------------------------------------|
A|-6-6-6-6-6-6-6-6-6-6-6-6-6-6-6-6-7-7-7-7-7-7-7-7-7-7-7-7-7-7-7-7------|
E|-4-4-4-4-4-4-4-4-4-4-4-4-4-4-4-4-5-5-5-5-5-5-5-5-5-5-5-5-5-5-5-5------|
pm . . . . . . . . . . . . . . . . . . . . . . . . . . . . . . . .


e|----------------------------------------------------------------------|
B|----------------------------------------------------------------------|
G|----------------------------------------------------------------------|
D|---------------------------------4-4-4-4-4-4-4-4-4-4-4-4-4-4-4-4------|
A|-2-2-2-2-2-2-2-2-2-2-2-2-2-2-2-2-2-2-2-2-2-2-2-2-2-2-2-2-2-2-2-2------|
E|-0-0-0-0-0-0-0-0-0-0-0-0-0-0-0-0--------------------------------------|
pm . . . . . . . . . . . . . . . . . . . . . . . . . . . . . . . .


At the end of this specific riff, play a palm harmonic down the neck
(I'm not sure what string yet)

e|----------------------------------------------------------------------|
B|----------------------------------------------------------------------|
G|----------------------------------------------------------------------|
D|----------------------------------------------------------------------|
A|-6-6-6-6-6-6-6-6-6-6-6-6-6-6-6-6-7-7-7-7-7-7-7-7-7--------------------|
E|-4-4-4-4-4-4-4-4-4-4-4-4-4-4-4-4-5-5-5-5-5-5-5-5-5--------------------|
pm . . . . . . . . . . . .

outro B x2

e|------------------------------------------------------------------------|
B|------------------------------------------------------------------------|
G|------------------------------------------------------------------------|
D|------------------------------------------------------------------------|
A|-2-2-2-2-2-2-2-2-2-2-2-2-2-2-2-2-11-11-11-11-11-11-11-11-11-11-11-11----|
E|-0-0-0-0-0-0-0-0-0-0-0-0-0-0-0-0-9--9--9--9--9--9--9--9--9--9--9--9-----|


e|------------------------------------------------------------------------|
B|------------------------------------------------------------------------|
G|------------------------------------------------------------------------|
D|------------------------------------------------------------------------|
A|-11-11-11-11-9-9-9-9-9-9-9-9-9-9-9-9-9-9-9-9-7-7-7-7-7-7-7-7-7-7-7-7----|
E|-9--9--9--9--7-7-7-7-7-7-7-7-7-7-7-7-7-7-7-7-5-5-5-5-5-5-5-5-5-5-5-5----|

e|----------------------------------------------------------------------|
B|----------------------------------------------------------------------|
G|----------------------------------------------------------------------|
D|----------------------------------------------------------------------|
A|-7-7-7-7--------------------------------------------------------------|
E|-5-5-5-5--------------------------------------------------------------|

outro c- repeat until fadeout

e|------------------------------------------------------------------------|
B|------------------------------------------------------------------------|
G|------------------------------------------------------------------------|
D|------------------------------------------------------------------------|
A|-2-2-2-2-2-2-2-2-2-2-2-2-2-2-2-2-11-11-11-11-11-11-11-11-11-11-11-11----|
E|-0-0-0-0-0-0-0-0-0-0-0-0-0-0-0-0-9--9--9--9--9--9--9--9--9--9--9--9-----|
pm   . . . . . . .   . . . . . . .

e|------------------------------------------------------------------------|
B|------------------------------------------------------------------------|
G|------------------------------------------------------------------------|
D|------------------------------------------------------------------------|
A|-11-11-11-11-9-9-9-9-9-9-9-9-9-9-9-9-9-9-9-9-7-7-7-7-7-7-7-7-7-7-7-7----|
E|-9--9--9--9--7-7-7-7-7-7-7-7-7-7-7-7-7-7-7-7-5-5-5-5-5-5-5-5-5-5-5-5----|

e|----------------------------------------------------------------------|
B|----------------------------------------------------------------------|
G|----------------------------------------------------------------------|
D|----------------------------------------------------------------------|
A|-7-7-7-7--------------------------------------------------------------|
E|-5-5-5-5--------------------------------------------------------------|


Lead (Travis)


Verse A x1


e|9-9--10-10---5-5--5-5--5-5--5-5--9-9--9-9--10-10-5-5--5-5--5-5--5-5-----|
B|7-7--7--7----3-3--3-3--3-3--3-3--7-7--7-7--7--7--3-3--3-3--3-3--3-3-----|
G|------------------------------------------------------------------------|
D|------------------------------------------------------------------------|
A|------------------------------------------------------------------------|
E|------------------------------------------------------------------------|

Verse B x1

e|9-9--10-10---5-5--5-5--5-5--5-5-----------------------------------------|
B|7-7--7--7----3-3--3-3--3-3--3-3-----------------------------------------|
G|------------------------------------------------------------------------|
D|------------------------------------------------------------------------|
A|------------------------------------------------------------------------|
E|------------------------------------------------------------------------|

Verse C x1

e|----------------------------------------------------------------------|
B|----------------------------------------------------------------------|
G|-14-14-14-16-14-14------------------14-14-14-16-14-14-----------------|
D|----------------------------------------------------------------------|
A|------------------17-17-17-16-16-16------------------17-17-17-16-16-16|
E|----------------------------------------------------------------------|
pm                  .  .  .  .  .  .                   .  .  .  .  .  .


e|-------------------------------------------------------------------------|
B|-------------------------------------------------------------------------|
G|-------------------------------------------------------------------------|
D|17-17-17-17-17-17-17-17-17-17-17-17-17-17-17-17-17-17-17-17-17-17-17-17--|
A|x--x--x--x--x--x--x--x--x--x--x--x--x--x--x--x--x--x--x--x--x--x--x--x---|
E|15-15-15-15-15-15-14-14-14-14-14-14-15-15-15-15-15-15-14-14-14-14-14-14--|

Verse D x1

e|----------------------------------------------------------------------|
B|----------------------------------------------------------------------|
G|-14-14-14-16-14-14------------------14-14-14-16-14-14-----------------|
D|----------------------------------------------------------------------|
A|------------------17-17-17-16-16-16------------------17-17-17-16-16-16|
E|----------------------------------------------------------------------|
pm                  .  .  .  .  .  .                   .  .  .  .  .  .


e|----------------------------------------------------------------------|
B|----------------------------------------------------------------------|
G|----------------------------------------------------------------------|
D|17-17-17-17-17-17-17-17-17-17-17-17-17-17--17-17----------------------|
A|x--x--x--x--x--x--x--x--x--x--x--x--x--x---x--x-----------------------|
E|15-15-15-15-15-15-14-14-14-14-14-14-15-15--15-15----------------------|

Verse A x1


e|9-9--10-10---5-5--5-5--5-5--5-5--9-9--9-9--10-10-5-5--5-5--5-5--5-5-----|
B|7-7--7--7----3-3--3-3--3-3--3-3--7-7--7-7--7--7--3-3--3-3--3-3--3-3-----|
G|------------------------------------------------------------------------|
D|------------------------------------------------------------------------|
A|------------------------------------------------------------------------|
E|------------------------------------------------------------------------|

Verse C x2

e|----------------------------------------------------------------------|
B|----------------------------------------------------------------------|
G|-14-14-14-16-14-14------------------14-14-14-16-14-14-----------------|
D|----------------------------------------------------------------------|
A|------------------17-17-17-16-16-16------------------17-17-17-16-16-16|
E|----------------------------------------------------------------------|

e|-------------------------------------------------------------------------|
B|-------------------------------------------------------------------------|
G|-------------------------------------------------------------------------|
D|17-17-17-17-17-17-17-17-17-17-17-17-17-17-17-17-17-17-17-17-17-17-17-17--|
A|x--x--x--x--x--x--x--x--x--x--x--x--x--x--x--x--x--x--x--x--x--x--x--x---|
E|15-15-15-15-15-15-15-15-15-15-15-15-15-15-15-15-15-15-15-15-15-15-15-15--|

Chorus A x1

e|----------------------------------------------------------------------|
B|----------------------------------------------------------------------|
G|--11--11--11--11--11--11--11--11--11--11--11--11--11--11--------------|
D|9---9---9---9---9---9---9---9---9---9---9---9---9---9---9-------------|
A|----------------------------------------------------------------------|
E|----------------------------------------------------------------------|

Chorus B x2

e|----------------------------------------------------------------------|
B|----------------------------------------------------------------------|
G|----4-4-4-4-4-4-4-4-4-4-4--4------------------------------------------|
D|----4-4-4-4-4-4-4-4-4-4-4--4------------------------------------------|
A|-4--2-2-2-2-2-2-2-2-2-2-2--2--4--5-5-5-5-5-5-5-5-5-5-5-5--5--4--------|
E|-2--0-0-0-0-0-0-0-0-0-0-0--0--2--3-3-3-3-3-3-3-3-3-3-3-3--3--2--------|
pm          .   . .     . .              .     . .     . .

Chorus C x1

e|----------------------------------------------------------------------|
B|----------------------------------------------------------------------|
G|----4-4-4-4-4-4-4-4-4-4-4--4------------------------------------------|
D|----4-4-4-4-4-4-4-4-4-4-4--4------------------------------------------|
A|-4--2-2-2-2-2-2-2-2-2-2-2--2------------------------------------------|
E|-2--0-0-0-0-0-0-0-0-0-0-0--0------------------------------------------|
pm          .   . .     . .

Chorus ending


e|-------------------------------------------------------------------------|
B|-------------------------------------------------------------------------|
G|-------------------------------------------------------------------------|
D|-------------------------------------------------------------------------|
A|10-10-10-10-10-10-10-10-10-10-10-10-10-10-10-10-10-10-10-10-10-10-10-10--|
E|8--8--8--8--8--8--8--8--8--8--8--8--8--8--8--8--8--8--8--8--8--8--8--8---|
pm      .        .        .        .        .        .        .

Verse B x1

e|9-9--10-10---5-5--5-5--5-5--5-5-----------------------------------------|
B|7-7--7--7----3-3--3-3--3-3--3-3-----------------------------------------|
G|------------------------------------------------------------------------|
D|------------------------------------------------------------------------|
A|------------------------------------------------------------------------|
E|------------------------------------------------------------------------|

Verse C x2

e|----------------------------------------------------------------------|
B|----------------------------------------------------------------------|
G|-14-14-14-16-14-14------------------14-14-14-16-14-14-----------------|
D|----------------------------------------------------------------------|
A|------------------17-17-17-16-16-16------------------17-17-17-16-16-16|
E|----------------------------------------------------------------------|

e|-------------------------------------------------------------------------|
B|-------------------------------------------------------------------------|
G|-------------------------------------------------------------------------|
D|17-17-17-17-17-17-17-17-17-17-17-17-17-17-17-17-17-17-17-17-17-17-17-17--|
A|x--x--x--x--x--x--x--x--x--x--x--x--x--x--x--x--x--x--x--x--x--x--x--x---|
E|15-15-15-15-15-15-15-15-15-15-15-15-15-15-15-15-15-15-15-15-15-15-15-15--|

Chorus A x1

e|----------------------------------------------------------------------|
B|----------------------------------------------------------------------|
G|--11--11--11--11--11--11--11--11--11--11--11--11--11--11--------------|
D|9---9---9---9---9---9---9---9---9---9---9---9---9---9---9-------------|
A|----------------------------------------------------------------------|
E|----------------------------------------------------------------------|

Chorus B x2

e|----------------------------------------------------------------------|
B|----------------------------------------------------------------------|
G|----4-4-4-4-4-4-4-4-4-4-4--4------------------------------------------|
D|----4-4-4-4-4-4-4-4-4-4-4--4------------------------------------------|
A|-4--2-2-2-2-2-2-2-2-2-2-2--2--4--5-5-5-5-5-5-5-5-5-5-5-5--5--4--------|
E|-2--0-0-0-0-0-0-0-0-0-0-0--0--2--3-3-3-3-3-3-3-3-3-3-3-3--3--2--------|
pm          .   . .     . .              .     . .     . .

Chorus C x1

e|----------------------------------------------------------------------|
B|----------------------------------------------------------------------|
G|----4-4-4-4-4-4-4-4-4-4-4--4------------------------------------------|
D|----4-4-4-4-4-4-4-4-4-4-4--4------------------------------------------|
A|-4--2-2-2-2-2-2-2-2-2-2-2--2------------------------------------------|
E|-2--0-0-0-0-0-0-0-0-0-0-0--0------------------------------------------|
pm          .   . .     . .

Chorus ending A


e|-------------------------------------------------------------------------|
B|-------------------------------------------------------------------------|
G|-------------------------------------------------------------------------|
D|-------------------------------------------------------------------------|
A|10-10-10-10-10-10-10-10-10-10-10-10-10-10-10-10-10-10-10-10-10-10-10-10--|
E|8--8--8--8--8--8--8--8--8--8--8--8--8--8--8--8--8--8--8--8--8--8--8--8---|
pm      .        .        .        .        .        .        .

Chorus Ending B

e|---0-----0------------------------------------------------------------|
B|-1---1-----1----------------------------------------------------------|
G|-------0--------------------------------------------------------------|
D|----------------------------------------------------------------------|
A|----------------------------------------------------------------------|
E|----------------------------------------------------------------------|

Bridge A x2

e|---12-12--12-12-----------------16-16--19-19---17-17--14-14--14-14--14--|
B|-12-----12-------12-12--12-12/17-----17------17-----17-----17-----17----|
G|---------------13-----13------------------------------------------------|
D|------------------------------------------------------------------------|
A|------------------------------------------------------------------------|
E|------------------------------------------------------------------------|

e|----4-----4---4-------------------------------------------------------|
B|--5---5~----5~-5-5~---------------------------------------------------|
G|----------------------------------------------------------------------|
D|----------------------------------------------------------------------|
A|----------------------------------------------------------------------|
E|----------------------------------------------------------------------|


Bridge B x1

e|---12-12--12-12-----------------16-16--19-19---17-17--14-14--14-14--14--|
B|-12-----12-------12-12--12-12/17-----17------17-----17-----17-----17----|
G|---------------13-----13------------------------------------------------|
D|------------------------------------------------------------------------|
A|------------------------------------------------------------------------|
E|------------------------------------------------------------------------|

e|----4-----4---4------6^(7)~-------------------------------------------|
B|--5---5~----5~-5-5~---------------------------------------------------|
G|----------------------------------------------------------------------|
D|----------------------------------------------------------------------|
A|----------------------------------------------------------------------|
E|----------------------------------------------------------------------|


Outro-repeat until fadeout

e|----------------------------------------------------------------------|
B|----------------------------------------------------------------------|
G|-9-9-9-9---------14-14-14-13-13-13-14-14-16-16-16-16-16-16-16-16-16-16|
D|-x-x-x-x-9-9-9-9-x--x--x--x--x--x--x--x--x--x--x--x--x--x--x--x--x--x-|
A|-7-7-7-7-x-x-x-x-12-12-12-11-11-11-12-12-14-14-14-14-14-14-14-14-14-14|
E|---------7-7-7-7------------------------------------------------------|

e|----------------------------------------------------------------------|
B|----------------------------------------------------------------------|
G|16-16-16-16-16-16-21-21-21-21-21-21-21-21-21-21-21-21-21-21-16-16-----|
D|x--x--x--x--x--x--x--x--x--x--x--x--x--x--x--x--x--x--x--x--x--x------|
A|14-14-14-14-14-14-19-19-19-19-19-19-19-19-19-19-19-19-19-19-14-14-----|
E|----------------------------------------------------------------------|

e|----------------------------------------------------------------------|
B|----------------------------------------------------------------------|
G|-18-18-18-18-18-18-13-13-16-16-16-16-16-16-16-16----------------------|
D|-x--x--x--x--x--x--x--x--x--x--x--x--x--x--x--x-----------------------|
A|-16-16-16-16-16-16-11-11-14-14-14-14-14-14-14-14----------------------|
E|----------------------------------------------------------------------|


| /  slide up
| \  slide down
| h  hammer-on
| p  pull-off
| ~  vibrato
| +  harmonic
| x  Mute note
| * Pinch Harmonic
| ^ bend
|*\ Palm harmonics
===========================================================================
comments
print report bad tab
4 comments total. Showing first comments.
0 reply
Dudeman5000 wrote on October 12 2008, 03:47 pm

Thanks man!

Pretty muck 100%

But it would really help if you told people the is was in 3/4

0 reply
Dudeman5000 wrote on October 12 2008, 03:48 pm

much*

That it is*

Damn my rushed typing...

0 reply
Gus Pablo wrote on January 4 2012, 04:19 pm

just as a note... for each of the three fast parts in the main verse riff you have to slide in to the first note after the power chords from a half-step below.

I want to post or [tab]
guest
You may want to rate the tab now too:
select rating
Please do not post tabs as comments. Select "correction" instead!