Oops, an error
Loading. Please wait.

Hush Tab

ver1
ver1

Whole song

Interactive

More versions @911Tabs.com
1,324 views 1 this week
2 commentsread comments
1 2 3 4 5
please rate
add to favorites launch autoscroll
font size
0
reset
Autoscroll
+/-
esc
set tempo
stop
Contributor
Difficulty
intermediate
WARNING: You are trying to view
                                    content from Ultimate-Guitar.com
                                    in an unauthorized application,
                                    which is prohibited.

                                    Please use an official Ultimate
                                    Guitar Tabs application for iPhone,
                                    iPad or Android to access legitimate
                                    chords, guitar, bass, and drum tabs
                                    from Ultimate-Guitar.com database.

                                    Type "ultimate guitar tabs" in Apple
                                    App Store's or Android Market's
                                    search to find the application.
Artist: Coheed and Cambria
Track: "Hush"
Album: Year of the Black Rainbow
Tuning: Standard

Tabbed by Larry Jones

The only thing I'm a little iffy on is Travis' lead over the chorus.  What I have is 
close though.
Additionally, there is some random guitar noise over the verse; but I won't waste my 
worrying about it
until they play it live.  Have fun with this one.

Key:
/ - slide
. - palm mute
v - vibrato
p - pull off
h - hammer on
~ - let ring
b - bend to sound like the following note
r - release bend
* - natural harmonic


Drum Intro: (0:00 - 0:12)


First Verse: (0:12 - 0:35)


"Is there something I can do?
Given mistakes I put you through.
There's no limit to this, give us what we need.
Should you stop or should you fall?
Remember this and remember them all.
Your wretched desire, and this is all your fault."


Claudio & Travis do not play guitar over the Verse.  Only bass and drums are heard.


First Pre-Chorus: (0:35 - 0:48)


"They're going to press you
To leave now, we'll look through
If I don't know better, than let it go. Oh"


Both Guitars x 1

e-----------------------------------------------------------------|
B-----------------------------------------------------------------|
G-----------------------------------------------------------------|
D-----------------------------------------------------------------|
A-----------------------------------------------------------------|
E-2~------------4-5~-------7~-------------------------------------|

e-----------------------------------------------------------------|
B-----------------------------------------------------------------|
G-----------------------------------------------------------------|
D-----------------------------------------------------------------|
A-----------------------------------------------------------------|
E-2222222222222-4-55555555-77777777-------------------------------|


First Chorus: (0:48 - 1:12)


"Cause there's just no one in this world
Like you, my darling dear
Can I go, and bring on this life without you?
Let this be my dying wish
Please give me more than this
It hurts so, please I paid my price my pennance."


Claudio Chorus Riff x 3

e-----------------------------------------------------------------|
B-----------------------------------------------------------------|
G-----------------------------------------------------------------|
D-----------------------------------------------------------------|
A-----------------------------------4-7p4-------------------------|
E-5-55555555555555-4-444444-7-7-4-7-------------------------------|

Claudio Chorus Riff End x 1

e-----------------------------------------------------------------|
B-----------------------------------------------------------------|
G-----------------------------------------------------------------|
D-----------------------------------------------------------------|
A--------------------7---7-6-------------4-7p4--------------------|
E-5-55555555555550-4---4-----7-4-7-7-4-7--------------------------|


Travis Chorus Lead x 1

e-----------------------------------------------------------------|
B-----------------------------------------------------------------|
G-8b9r8-----------9-----------------------------------------------|
D-------9-----7h9---9---6h7p6-4-----------------------------------|
A-------------------------------7-4---------4-7p4-----------------|
E-----------------------------------7-7-4-7-----------------------|

e-----------------------------------------------------------------|
B-----------------------------------------------------------------|
G-8b9r8-----------9-----------------------------------------------|
D-------9-----7h9---9---6-4-----4---------------------------------|
A---------------------------7-6---7-6-4---------4-7p4-------------|
E---------------------------------------7-7-4-7-------------------|

e-----------------------------------------------------------------|
B-----------------------------------------------------------------|
G-8b9r8-----------9-----------------------------------------------|
D-------9-----7h9---9---6h7p6-4-----------------------------------|
A-------------------------------7-4---------4-7p4-----------------|
E-----------------------------------7-7-4-7-----------------------|

e-----------------------------------------------------------------|
B-----------------------------------------------------------------|
G-8b9r8-----------9-----------------------------------------------|
D-------9-----7h9---9---------------------------------------------|
A-------------------------7---7-6-------------4-7p4---------------|
E-----------------------4---4-----7-4-7-7-4-7---------------------|


First Post-Chorus: (1:12 - 1:24)


"Hush,
There is no love or trust
Enough to murder all
I am your ghost."


Claudio Post-Chorus Riff x 1

e---------------------------------------------------------------------|
B---------------------------------------------------------------------|
G---------------------------------------------------------------------|
D---------------------------------------------------------------------|
A---------------------------------------------------------------------|
E-2222222222222222-4444444444444444-5555555555555555-77777777999999/--|


Travis Post-Chorus Lead x 1

e---------------------------------------------------------------------|
B---------------------------------------------------------------------|
G---------------------------------------------------------------------|
D---------------------------------------------------------------------|
A-----------4-7p4------------4-7p4------------4-7p4------------4-7p4--|
E-------4-7--------------4-7--------------4-7--------------4-7--------|


Second Verse: (1:24 - 1:47)


"Disturbed and ponder these tainted dreams
No questions unanswered in future sings
There's a limit to love
No need to feel extinct
You will shatter, you will fall
Rendered helpless, surrenders all
You can push on these walls, but help won't hear your call."


Same as 1st Verse


Second Pre-Chorus: (1:47 - 1:59)


Same as 1st Pre-Chorus


Second Chorus: (1:59 - 2:23)


Same as 1st Chorus


Second Post-Chorus: (2:23 - 2:35)


Same as 1st Post-Chorus


Bridge (2:35 - 3:00)


"No matter what you tell yourselves ladies and gentlemen,
there is no end of the rainbow.  No greater good or purpose
that you will only service.  There is one thing we can all
look forward to doing without stopping.  Why was the time
wondering who you are, when we know plenty of things about it.
Lets give our egos a rest shall we?"

Claudio Bridge Chords x 1

e------------------------------------------------------------------|
B------------------------------------------------------------------|
G------------------------------------------------------------------|
D-------------9-9-------------7-7------------------7-7-7-7---------|
A-111111119-9-7-7-7-7-7-7-9-9-5-5-7-7-7-7-9-9-1111-5-5-5-5---------|
E-9-9-9-9-7-7-----5-5-5-5-7-7-----5-5-5-5-7-7-9-9------------------|
   ........................................................

e-----------------------------------------------------------------|
B-----------------------------------------------------------------|
G-----------------------------------------------------------------|
D-7-7-7-7---------6-6-6-6-----------------------------------------|
A-5-5-5-5-7-7-7-7-4-4-4-4-4-4-4-4-2~---------------2~-------------|
E---------5-5-5-5---------2-2-2-2-0~---------------0~-------------|
   ...............................


Travis does not play guitar over the bridge on the album.


Third Chorus: (3:00 - 3:24)


Same as 1st Verse except do not play any guitar over the Vocal break.


Fourth Chorus: (3:24 - 3:48)


Same as 1st Chorus


Additional Chorus Lead x 1

Pick each note rapidly 16 times
e-12-------12-----------------------------------------------------|
B------------------9----------------------------------------------|
G---------------------------11------------------------------------|
D-----------------------------------------------------------------|
A-----------------------------------------------------------------|
E-----------------------------------------------------------------|

e-----------------------------------------------------------------|
B-----------------------------------------------------------------|
G-9--------9-------8----------------------------------------------|
D---------------------------9-------------------------------------|
A-----------------------------------------------------------------|
E-----------------------------------------------------------------|

e-12-------12------11---------------------------------------------|
B---------------------------12------------------------------------|
G-----------------------------------------------------------------|
D-----------------------------------------------------------------|
A-----------------------------------------------------------------|
E-----------------------------------------------------------------|

e-12-------12------11-------12------------------------------------|
B-----------------------------------------------------------------|
G-----------------------------------------------------------------|
D-----------------------------------------------------------------|
A-----------------------------------------------------------------|
E-----------------------------------------------------------------|


Third Post-Chorus: (3:48 - 4:00)


Same as 1st Post-Chorus


Additional Post-Chorus Lead x 1

Rapidly pick this note the whole way through
e-12--------------------------------------------------------------|
B-----------------------------------------------------------------|
G-----------------------------------------------------------------|
D-----------------------------------------------------------------|
A-----------------------------------------------------------------|
E-----------------------------------------------------------------|
comments
We did not receive enough feedback on this tab! Please rate:
print report bad tab
1 2 3 4 5
2 comments total.
0 reply
DuffMcKagan7179 wrote on November 5 2010, 03:23 pm

"No matter what you tell yourselves ladies and gentlemen,
there is no end of the rainbow. No greater good or purpose
that you or I serve on this surface. There is one thing we can all look forward to doing suddenly and that's dying. Why waste your time wondering who you are when there are plenty of things you aren't? Lets give our egos and put our hearts to work, shall we?"

0 reply
DuffMcKagan7179 wrote on November 5 2010, 03:23 pm

Ugh. Correction to that correction:
"No matter what you tell yourselves ladies and gentlemen,
there is no end of the rainbow. No greater good or purpose
that you or I serve on this surface. There is one thing we can all look forward to doing suddenly and that's dying. Why waste your time wondering who you are when there are plenty of things you aren't? Lets give our egos a rest and put our hearts to work, shall we?"

I want to post or [tab]
guest
You may want to rate the tab now too:
select rating
Please do not post tabs as comments. Select "correction" instead!