Oops, an error
Loading. Please wait.

In Keeping Secrets Of Silent Earth 3 Bass Tab

ver1
ver1

Album

Whole song

Interactive

More versions @911Tabs.com
9,175 views 15 this week
2 commentsread comments
1 2 3 4 5
excellent!
x 4
Autoscroll
+/-
esc
set tempo
stop
Contributor
Hey! There's an official Ultimate Guitar app which is ideal
for learning songs when you're away from computer. Get the app
WARNING: You are trying to view
                                    content from Ultimate-Guitar.com
                                    in an unauthorized application,
                                    which is prohibited.

                                    Please use an official Ultimate
                                    Guitar Tabs application for iPhone,
                                    iPad or Android to access legitimate
                                    chords, guitar, bass, and drum tabs
                                    from Ultimate-Guitar.com database.

                                    Type "ultimate guitar tabs" in Apple
                                    App Store's or Android Market's
                                    search to find the application.
 Coheed and Cambria
 In Keeping Secrets of Silent Earth: 3
 Tabbed By : dvanwyk
 e-mail: dustinvanwyk@yahoo.com
 
 Tunning:Standard

 1.The Ring in Return(No bass)
 2.In Keeping Secrets of Silent Earth: 3(Oneofmanyfallen)
 3.Cuts Marked in the March of Men(Unregistered)
 4.Three Evils (Embodied in Love and Shadow)(doobidoo)
 5.The Crowing(Oneofmanyfallen)
 6.Blood Red Summer(sobey10)
 7.The Velourium Camper I: Faint of Heart(Xcrimson_ghostX)
 8.The Velourium Camper II: Backend of Forever(doobidoo)
 9.The Velourium Camper III: Al the Killer(Unknown)
 10.A Favor House Atlantic(zeroisgreatman)
 11.The Light & The Glass(choke383)

 -------------------------------------------------------------------------------

 1.The Ring in Return(No bass)

 ===============================================================================

 
 2.In Keeping Secrets of Silent Earth: 3

G|-------------------------------------------------------------------->
D|-------------------------------------------------------------------->
A|---------------------11h12p11-9-11-7--------------------7p9h7-6p7h7->
E|-9999999999999999999-----------------000000000000000000------------->

>-----------------------------------------------------------|
>---------------------9p7-6h7p7-----------------------------| 
>-----9-9-----------------------9---------------------------|
>-777----7-7777777777--------------555555555555555555555555-|


Verse
G|---------------------------------|
D|--------6------------------------|
A|------7---7-6-6h7----------------|
E|-99-9-------------77-777-55-5-5/-|


Pre-chorus
G|--------------------------|  |--------------------------|
D|--------------------------|  |--------------------------|
A|-------------4---0-2-2222-|3x|--------------------------|
E|-22-22-22-22---4----------|  |-22-22-22-22-444444555555-|


Chorus
G|-------------------------------------------------------------------->
D|-------------------------------------------------------------------->
A|---------------------11h12p11-9-11-7--------------------7p9h7-6p7h7->
E|-9999999999999999999-----------------000000000000000000------------->

>-----------------------------------------------------------|
>---------------------9p7-6h7p7-----------------------------| 
>-----9-9-----------------------9---------------------------|
>-777----7-7777777777--------------555555555555555555555555-|


G|----------------------------------------------------->
D|----------------------------------------------------->
A|----------------------------------------------------->
E|-99999999999999999999-10-12-000000000000000000000000->

>--------------------------------------------------|
>--------------------------------------------------|
>--------------------------------------------------|
>-777777777777777777777777-55555555555555555555555-|

Verse

Pre-chorus

Chorus

Brdige Part I ("For you I'd do anything just to make you happy")
G|---------------------------------------------------------------->
D|------------------2~-----------------------2~--------2--------2->
A|--------------2-3-----------333--------2-3-------2-3------2-3--->
E|-00---00---00--------555555-----222-00--------00-------00------->

>--------------------------------------------------------------------|
>---------------------2~------------------2~---------2-3-5-3-2---2---|
>-------333-------2-3-------2-3-2~----2-3------2-3-5-----------5---2-|
>-555555---222-00--------00--------00--------5-----------------------|


G|-----------------|
D|-----------------|
A|-----------------|
E|-5~--3~--2~--0~--|
   I  Love You Too

Part II ("The navigator, the pilot, her favorite")
G|----14~---------|
D|----12~---------|
A|----------------|
E|-0~-----8888888-|

Part III ("Will, do the children really understand the things you did to them?")
G|-------------|
D|-------------|
A|----3~----5~-|
E|-1~----3~----|

Part IV ("In the seventh turning hour when the victim's shadow falls") 
G|----------------------------------|
D|----------------------------------|
A|---------------------------3~--2~-|
E|-5~-----1~-----5~-----1~----------|

During the intro in the end (Sounds weird, I know)
G|-------------------------|
D|-------------------------|
A|-------------------------|
E|-55555555555555555555555-|

Chorus again

End on
G|----|
D|----|
A|----|
E|-9~-|


 ===============================================================================

 3.Cuts Marked in the March of Men(Unregistered)

Verse 
G|--------------------|
D|--------------------|
A|--------------------|
E|-44--77--66--997762-|


Pre-chorus ("In your last hours stand")
G|-------------------------------|
D|-------------------------------|
A|--------------777-555555555555-|
E|-2h44-777-999------------------|


Chorus
G|------------------------------------------------------------------>
D|------------------------------------------------------------------>
A|-----------------------------------------------------555555555555->
E|-000000000000-999999999999-777777777777-555555555555-------------->

>----------------------------------------------------->
>----------------------------------------------------->
>----------------------------------------555555555555->
>-999999999999-777777777777-555555555555-------------->

>--------------------------------------------------------->
>--------------------------------------------------------->
>-----------------4h5p4-----------4h5p4------555555555555->
>-999999999999-777------777777-555-----555555------------->

>----------------------------------------|*Josh varies playing the 4h5p4
>----------------------------------------| on the A string between the 3rd
>----------------------------------------| time and the 2nd time of the
>-999999999999-777777777777-555555555555-| chorus

Verse

Pre-chorus

Chorus

Bridge Part 1
G|-----------------------------------|
D|-----------------------------2-----|
A|----------4-7-7----5-5---2-3---3---|
E|-9p7-7-7---------5-----5---------5-|

Part 2
G|----------------------------------------------------------->
D|----------------------------7----------------------------7->
A|------------------------5h7--------------------------5h7--->
E|-9p7-7-7-7-7-7-7-7-7-77-------99-77-44-77-77-77h9-77------->

>------------------------------------------------------>
>----------------------------7------------------------->
>------------------------5h7--------------------------->
>-99-77-44-77-77-77h9-77-------4-4-4-4-4-4-5-5-5-5-5-5->

>------------------------------|
>----------------------------7-|
>------------------------5h7---|
>-99-77-44-77-77-77h9-77-------|

Part 3 ("Deliver a favor to my love")
G|-------------------------------------------------|
D|-------------------------------------------------|
A|-------------------------------------------------|
E|-99-99-99-99-99-99-99-99-00-00-00-00-00-00-00-00-|

Pre-chorus

Chorus

===============================================================================

 4.Three Evils (Embodied in Love and Shadow)(doobidoo)

 Intro
 Moderate Rock Q=87
 4/4
  Gtr I
  Wx2
|--------||
|--------||
|--------||
|--------||


   Verse
    S S S S S S S S S S S S S S S S   S S S S S S S S S S S S S S S S
||----------------------------------|---------------------------------|
||o---------------------------------|---------------------------------|
||o---------7-7---7-4-4---4-5-5---5-|---------------------------------|
||--5-5---5-------------------------|-5-5---5-0-0---0-2-2---2-3-3---3-|


  S S S S S S S S S S S S S S S S   S S S S S S S S S S S S S S S S
|---------------------------------|---------------------------------|
|---------------------------------|---------------------------------|
|---------7-7-7-7-9-9-9-9-5-5-5-0-|---------------------------------|
|-5-5---5-------------------------|-7-7-7-7-7-7-7-7-7-7-7-7-7-7-7-7-|


  1.,2.
  S S S S S S S S S S S S S S S S     3x
|-------------------------------------||
|------------------------------------o||
|-----------------------------7------o||
|-7-7-7-7-7-7-7-7-7-7-7-7-7-7---------||


  3.
  S S S S S S S S S S S S S E S    S  S  S  S  S  S  S  S  S  S  S  S  S  S  S  S
|-------------------------------|-------------------------------------------------|
|-------------------------------|-------------------------------------------------|
|-------------------------------|-------------------------------------------------|
|-7-7-7-7-7-7-7-7-7-7-7-7-7-9-0-|-10-10-10-10-10-10-10-10-10-10-10-10-10-10-10-10-|


   S  S  S  S  S  S  S  S  S  S  S  S  S  S  S  S
|-------------------------------------------------||
|-------------------------------------------------||
|-------------------------------------------------||
|-10-10-10-10-10-10-10-10-10-10-10-10-10-12-12-12-||


   Chorus
    $
    S S S S S S S S S S S S S S S S   S S S S S S S S S S S S S S S S
||----------------------------------|---------------------------------|
||o---------------------------------|---------------------------------|
||o-------------------------------7-|---------------------------------|
||--5-5-5-5-5-5-5-5-5-5-5-5-5-5-5---|-7-7-7-7-7-7-7-5-2-2-2-2-2-2-2-0-|


                           To Coda
  S S S S S S S S S S S S S S S S   S S S S S S S S S S S S S S S S
|---------------------------------|----------------------------------||
|---------------------------------|---------------------------------o||
|---------------------------------|-------------------5-3---5---3-5-o||
|-3-3-3-3-3-3-3-3-3-3-3-3-3-3-3-3-|-3-3-3-3-3-3-3-3-0-----5---5------||


   Verse
    S S S S S S S S S S S S S S S S   S S S S S S S S S S S S S S S S
||----------------------------------|---------------------------------|
||o---------------------------------|---------------------------------|
||o---------7-7---7-4-4---4-5-5---5-|---------------------------------|
||--5-5---5-------------------------|-5-5---5-0-0---0-2-2---2-3-3---3-|


  S S S S S S S S S S S S S S S S
|---------------------------------|
|---------------------------------|
|---------7-7-7-7-9-9-9-9-5-5-5-0-|
|-5-5---5-------------------------|


                                    1.
  S S S S S S S S S S S S S S S S   S S S S S S S S S S S S S S E
|---------------------------------|--------------------------------||
|---------------------------------|-------------------------------o||
|---------------------------------|-----------------------------7-o||
|-7-7-7-7-7-7-7-7-7-7-7-7-7-7-7-7-|-7-7-7-7-7-7-7-7-7-7-7-7-7-7----||


  2.
  S S S S S S S S S S S S S E S    S  S  S  S  S  S  S  S  S  S  S  S  S  S  S  S
|-------------------------------|-------------------------------------------------|
|-------------------------------|-------------------------------------------------|
|-------------------------------|-------------------------------------------------|
|-7-7-7-7-7-7-7-7-7-7-7-7-7-9-0-|-10-10-10-10-10-10-10-10-10-10-10-10-10-10-10-10-|


                                      D.S. al Coda
   S  S  S  S  S  S  S  S  S  S  S  S  S  S  S  S
|-----------------------------------------------------||
|-----------------------------------------------------||
|-----------------------------------------------------||
|-10-10-10-10-10-10-10-10-10-10-10-10-10-12-12-12-----||


                              Interlude
  &
                              2/4
  S S S S S S S S Q.   S S     +S  S S S S S S S
|--------------------------||--------------------|
|--------------------------||o-------------------|
|--------------------------||o-------------------|
|-3-3-3-3-3-3-3-0-3------2-||--(2)-2-2-2-2-2-2-2-|


 4/4
  S S S S +S  S S S +S  S S S S S S S
|--------------------------------------|
|--------------------------------------|
|---0-4-5-(5)-4-0-2-(2)-----0---7---5--|
|-2---------------------4--------------|


  +S  S S S S S S S S S S S S S S S  3x H..       +S  S
|------------------------------------||-----------------||
|-----------------------------------o||-----------------||
|-(5)-5-5-5-5-5-5-5-5-5-5-5-5-5-0---o||-----------------||
|---------------------------------2--||-2---------(2)-7-||


   Breakdown
    +S  S S S S S S S S S S S S S S S   S S S S S S S S S S S S S S S S
||------------------------------------|---------------------------------|
||o-----------------------------------|---------------------------------|
||o-----------------------------------|-------------------------------5-|
||--(7)-7-7-7-7-7-7-7-7-7-7-7-7-7-7-7-|-7-7-7-7-7-7-7-7-7-7-7-7-7-0-0---|


                                      1.,2.
  +S  S S S S S S S S S S S S S S S   S S E S S E S S S S S S S S  3x
|-----------------------------------|------------------------------||
|-----------------------------------|-----------------------------o||
|-(5)-5-5-5-5-5-5-5-5-5-5-5-5-5-5-0-|-4-4---4-4-------------------o||
|-----------------------------------|-------------5-5-5-5-5-5-5-7--||


                                Bridge
  3.
  S S E S S E S S S S S S S S    +S  S S S S S S S S S S S S S S S
|-----------------------------||-----------------------------------|
|-----------------------------||-----------------------------------|
|-----------------------------||-----------------------------------|
|-9-9---9-9---5-5-5-5-5-5-5-5-||-(5)-5-5-5-5-5-5-5-5-5-5-5-5-5-5-4-|


  +S  S S S S S S S S S S S S S S S
|------------------------------------|
|------------------------------------|
|------------------------------------|
|-(4)-4-4-4-4-4-4-4-4-4-4-4-4-4-0-2--|


  +S  S S S S S S S S S S S S S S S   +S  S S S S S S S S S S S S S S S
|-----------------------------------|------------------------------------|
|-----------------------------------|------------------------------------|
|-----------------------------------|---------------------------------5--|
|-(2)-2-2-2-2-2-2-2-2-2-2-2-2-2-2-0-|-(0)-0-0-0-0-0-0-0-0-0-0-0-0-0-0----|


  +S  S S S S S S S S S S S S S S S   S S S S S S S S S S S S S S S S
|-----------------------------------|----------------------------------|
|-----------------------------------|----------------------------------|
|-(5)-5-5-5-5-5-5-5-5-5-5-5-5-5-5-5-|-5-5-5-5-5-5-5-5---5-4---5-4------|
|-----------------------------------|-----------------5-----5-----5-5--|


  +S  S S S S S S S S S S S S S S S   +S  S S S S S S S S S S S S S S S
|-----------------------------------|------------------------------------|
|-----------------------------------|------------------------------------|
|-----------------------------------|------------------------------------|
|-(5)-5-5-5-5-5-5-5-5-5-5-5-5-5-5-4-|-(4)-4-4-4-4-4-4-4-4-4-4-4-4-4-0-2--|


  +S  S S S S S S S S S S S S S S S   +S  S S S S S S S S S S S S S S S
|-----------------------------------|------------------------------------|
|-----------------------------------|------------------------------------|
|-----------------------------------|---------------------------------5--|
|-(2)-2-2-2-2-2-2-2-2-2-2-2-2-2-2-0-|-(0)-0-0-0-0-0-0-0-2-2-4-4-5-5-5----|


  +S  S S S S S S S S S S S S S S S   S S S S S S S S S S S S S S S S
|-----------------------------------|----------------------------------||
|-----------------------------------|----------------------------------||
|-(5)-5-5-5-5-5-5-5-5-5-5-5-5-5-5-5-|-5-5-5-5-5-5-5-5---5-4---5-4------||
|-----------------------------------|-----------------5-----5-----5-5--||


 Outro
  +S  S S S S S S S S S S S S S S S   +S  S S S S S S S S S S S S S S S
|-----------------------------------|------------------------------------|
|-----------------------------------|------------------------------------|
|-----------------------------------|------------------------------------|
|-(5)-5-5-5-5-5-5-5-5-5-5-5-5-5-5-4-|-(4)-4-4-4-4-4-4-4-4-4-4-4-4-4-0-2--|


  +S  S S S S S S S S S S S S S S S   +S  S S S S S S S S S S S S S S S
|-----------------------------------|------------------------------------|
|-----------------------------------|------------------------------------|
|-----------------------------------|---------------------------------5--|
|-(2)-2-2-2-2-2-2-2-2-2-2-2-2-2-2-0-|-(0)-0-0-0-0-0-0-0-2-2-4-4-5-5-5----|


  +S  S S S S S S S S S S S S S S S   S S S S S S S S S S S S S S S S
|-----------------------------------|----------------------------------|
|-----------------------------------|----------------------------------|
|-(5)-5-5-5-5-5-5-5-5-5-5-5-5-5-5-5-|-5-5-5-5-5-5-5-5---5-4---5-4------|
|-----------------------------------|-----------------5-----5-----5-5--|


    +S  S S S S S S S S S S S S S S S   +S  S S S S S S S S S S S S S S S
||------------------------------------|-----------------------------------|
||o-----------------------------------|-----------------------------------|
||o-----------------------------------|-----------------------------------|
||--(5)-5-5-5-5-5-5-5-5-5-5-5-5-5-5-4-|-(4)-4-4-4-4-4-4-4-4-4-4-4-4-4-0-2-|


  +S  S S S S S S S S S S S S S S S   +S  S S S S S S S S S S S S S S S
|-----------------------------------|------------------------------------|
|-----------------------------------|------------------------------------|
|-----------------------------------|---------------------------------5--|
|-(2)-2-2-2-2-2-2-2-2-2-2-2-2-2-2-0-|-(0)-0-0-0-0-0-0-0-0-0-0-0-0-0-0----|


  +S  S S S S S S S S S S S S S S S   S S S S S S S S S S S S S S S S
|-----------------------------------|-----------------------------------||
|-----------------------------------|----------------------------------o||
|-(5)-5-5-5-5-5-5-5-5-5-5-5-5-5-5-5-|-5-5-5-5-5-5-5-5---5-4---5-4------o||
|-----------------------------------|-----------------5-----5-----5-5---||


===============================================================================

 5.The Crowing(Oneofmanyfallen)
 
 Verse
G|----------------------------------------------------------|
D|---------------------------12-----------------------------|
A|-77-77-9h10-9-7-99-99-10h12--12-55-55--5-55-33-33-0320--5-|
E|-------------------------------------55---------------30--|

Chorus ("But you, you know, you were my favorite")
G|-------------------------------------------------|
D|-------------------------------------------------|
A|-------------------------------------------------|
E|-0-0-0-0~----0-0-0-0~----8-8-8-8~----8-8-8-8~-7~-|

Rest for four measures after the chorus and then come in and do the verse again

Chorus

Bridge Part 1 ("would I walk through the door...")
G|-------------------------------------|
D|-------------------------------------|
A|-------------------------------------|
E|-8888-8-8-00-0-0-0-10101010-101010-7-|

Part 2 ("Pray you're not the only one.")
G|------------------------------------------------------------------|
D|------------------------------------------------------------------|
A|-777777777777777777777777777777775555555555555555---777---777-----|
E|-------------------------------------------------888---555---8877-|

Part 3 (Solo)
G|----------------------------------------------4~-----------9-----|
D|--------------------------(Rest while the---)------------9---10~-|
A|--------------------------(two guitars do---)-----7-9-10---------|
E|-000000000000000000000000-(their pinch thing)--------------------|

Part 4("If they form mistakes would I take them back")
G|-------------------------------------------|
D|--------------------(Rest while the 2)-----|
A|--------------------(guitars do their)-----|
E|-77-55-77-55-77-55--(pinch solo thing)--7~-|

Part 5 ("But would they be the words that I would say")
G|------------------------------------------------------------------------|
D|------------------------------------------------------------------------|
A|--------------------------------------------------------------10~-------|
E|-3-3-3-7-7-7~--3-3-3-7-7-7~--3-3-3-7-7-7~--3-3-3-7-7-7~--8-8-----8-8-8~-|

Part 6("Did you ever really know before...")
G|-------------------------------------------------|
D|-------------------------------------------------|
A|-22----22----22----22----------------------------|
E|----00----00----00----00-33-00-33-00-33-00-33-00-|

Part 7 ("Dear Anbellina...")
G|-------------------------------------------------------------------------|
D|-------------------------------------------------------------------------|
A|-----------------555555555555h7--------------------------------44-22-4p0-|
E|-2222222222222222--------------55555555555555550000000000000000----------|

===============================================================================

 6.Blood Red Summer(sobey10)
 
 Verse
G|----------------------------------------------------------------------|\
D|----------------------------------------------------------------------| \
A|---6777777777777777767777777777777777---------------------------------| /3 Times 
E|-------------------------------------455555555555555554555555555555555|/

G|----------------------------------------------|
D|----------------------------------------------|
A|---6777777777777777777777777777777777-77665544|
E|----------------------------------------------|
  
 Chorus
G|---------------------------------------------------------------------------|\
D|--------------------------------------------99--99--99-------99--99--99--99| \
A|---------------------------------------66-77--77--77---7-6-77--77--77--77--| /2 Times
E|---7777777777777777-5555555555-557799--------------------------------------|/

 Verse
G|----------------------------------------------------------------------|\
D|----------------------------------------------------------------------| \
A|---6777777777777777767777777777777777---------------------------------| /3 Times 
E|-------------------------------------455555555555555554555555555555555|/

 Chorus
G|---------------------------------------------------------------------------|\
D|--------------------------------------------99--99--99-------99--99--99--99| \
A|---------------------------------------66-77--77--77---7-6-77--77--77--77--| /2 Times
E|---7777777777777777-5555555555-557799--------------------------------------|/

G|----------------------------------------------------------------------|\
D|----------------------------------------------------------------------| \
A|---4444444444444444-2222222222222222-00000000000000000000000000000000-| /2 Times
E|----------------------------------------------------------------------|/

G|----------------------------------------------------------------------|\
D|----------------------------------------------------------------------| \
A|---6777777777777777767777777777777777---------------------------------| /3 Times 
E|-------------------------------------455555555555555554555555555555555|/

G|----------------------------------------------|
D|----------------------------------------------|
A|---6777777777777777777777777777777777-77665544|
E|----------------------------------------------|

END

G|----------------------------------------------------------------------|\
D|----------------------------------------------------------------------| \
A|---4444444444444444-2222222222222222-00000000000000000000000000000000-| /4Times
E|----------------------------------------------------------------------|/

===============================================================================

 7.The Velourium Camper I: Faint of Heart(Xcrimson_ghostX)

 INTRO
G|------------------------04------------|
D|-----555-4--4h5/7-00------4-0-02020---|
A|-707-------5--------303---------------|
E|--------------------------------------|

G|------------------------------|
D|-----555-4--4h5/7-00----------|
A|-707-------5--------303--3~--|
E|------------------------------|

VERSE
G|------------------------04------------|
D|-----555-4--4h5/7-00------4-0-02020---|
A|-707-------5--------303---------------|
E|--------------------------------------|

G|------------------------------|2X
D|-----555-4--4h5/7-00----------|
A|-707-------5--------303--3~~--|
E|------------------------------|

CHORUS    x3
G|----------------------------------||--------------------------------------|1X
D|----------------------------------||--------------------------------------|
A|---------555555553333333333333333-||-----------------7777777755555555/3~--|
E|-33333333-------------------------||-5555555555555555---------------------|

VERSE
G|------------------------04------------|
D|-----555-4--4h5/7-00------4-0-02020---|
A|-707-------5--------303---------------|
E|--------------------------------------|

G|------------------------------|2X
D|-----555-4--4h5/7-00----------|
A|-707-------5--------303--3~ --|
E|------------------------------|

CHORUS         x3
G|----------------------------------||-------------------------------------|1X
D|----------------------------------||-------------------------------------|
A|---------555555553333333333333333-||-----------------7777777755555555/3~-|
E|-33333333-------------------------||-5555555555555555--------------------|

BRIDGE
G|----54-----54----------------------|2X
D|------50-----50--------------------|
A|----------------33333333-7-7-5-5---|
E|-3-3----3-3------------------------|
     
G|----------------------------------------------------|3X
D|----------------------------------------------------|
A|-----------------------------------3333333333333333-|
E|-5555555555555555-7777777777777777------------------|
 
BRIDGE 2
G|------------------|1X G|----------------------------|3X
D|------------------|   D|----------------------------|
A|-2p~~-235-3-2-----|   A|-0-0000000000000-0-235-3-2--|
E|--------------3---|   E|-------------------------3--|
                
BRIDGE 3
G|----------------------------|
D|----------------------------|
A|--0-05320--0-05320-0-05320--|
E|---------3--------3-------3-|


BRIDGE 4
G|----------------------------|----------------------------|
D|-------------54--------54---|-------------54--------54---|
A|-----0-003-33--50--0033--50-|-----5-553-33--50--5533--50-|
E|-3-33------------33---------|-3-33------------33---------|

BRIDGE 5
G|------------------------------------|4X
D|------------------------------------|
A|------------------------------------|
E|-55555555555555557777777733333333---|

CHORUS
G|---------------------------|2X|-----------------------------------|2X
D|---------------------------|  |-----------------------------------|
A|---------3333333333333333--|  |---------555555553333333333333333--|
E|-3~ -0~ -------------------|  |-33333333--------------------------|

G-----------------------------------------------|
D-----------------------------------------------|
A-----------------7~ -55555555-3333333333333333-|
E-5555555555555555------------------------------|

     x2                                     x2
G|------------------------------------| |-----------------------------------|
D|------------------------------------| |-----------------------------------|
A|------------------3333333333333333--| |---------555555553333333333333333--|
E|-33333333-00000000------------------| |-33333333--------------------------|

G|---------------------------------------|
D|---------------------------------------|
A|-----------------7777777755555555-3~~--|
E|-5555555555555555----------------------|

===============================================================================

 8.The Velourium Camper II: Backend of Forever(doobidoo)

 Intro
 Moderate Rock Q.=54
 6/8
  Gtr I
  e Q  Q.     H.
|-----------|-------|
|-----------|-------|
|-----------|-------|
|-8---------|-------|


  S S Q  Q.     S S Q   S  S  S  S  +S   S
|-------------|----------------------------||
|-------------|----------------------------||
|-------------|----------------------------||
|-8-8---------|-8-8----11-11-11-10-(10)-10-||


 Verse
  H.        +Q.    S  S  S  S  +S   S
|---------|---------------------------|
|---------|---------------------------|
|---------|---------------------------|
|-6-------|-(6)---11-11-11-10-(10)-10-|


  S S Q  e Q     S  S Q   e Q
|-------------|----------------|
|-------------|----------------|
|-------------|----------------|
|-8-8----8----|-10-10----10----|


   S  S Q   e Q     S  S Q   e Q
|----------------|----------------|
|----------------|----------------|
|----------------|----------------|
|-11-11----11----|-13-13----13----|


    $
    S S Q  e Q     S  S Q   e Q
||--------------|----------------|
||o-------------|----------------|
||o-------------|----------------|
||--8-8----8----|-10-10----10----|


                          To Coda
   S  S Q   e Q     S  S Q   e Q
|----------------|----------------|
|----------------|----------------|
|----------------|----------------|
|-11-11----11----|-10-10----10----|


  S S Q  e Q     S  S Q   e Q
|-------------|----------------|
|-------------|----------------|
|-------------|----------------|
|-8-8----8----|-10-10----10----|


   S  S Q   e Q     S  S Q   e Q
|----------------|-----------------||
|----------------|----------------o||
|----------------|----------------o||
|-11-11----11----|-13-13----13-----||


  S S Q  e Q    S S Q  e Q
|-------------|-------------||
|-------------|-------------||
|-------------|-------------||
|-8-8----8----|-8-8----8----||


   Pre-Chorus
    S S S S S S S S S S S S   S S S S S S S  S  S  S  S S
||--------------------------|-----------------------------|
||o-------------------------|-----------------------------|
||o-------------------------|-----------------------------|
||--8-8-8-8-8-8-8-8-8-8-8-8-|-8-8-8-8-8-8-8-10-11-11-10-0-|


  S S S S S S S S S S S S   S S S S S S S S S  S  S  S
|-------------------------|-----------------------------||
|-------------------------|----------------------------o||
|-------------------------|----------------------------o||
|-2-2-2-2-2-2-2-2-2-2-2-0-|-7-7-0-7-7-0-5-5-0-11-12-11--||


    S  S S S S S S S S S S S    S  S S S S S S  S  S  S  S  S
||---------------------------|---------------------------------|
||o--------------------------|---------------------------------|
||o--------------------------|---------------------------------|
||--8--8-8-8-8-8-8-8-8-8-8-8-|--8--8-8-8-8-8-8-10-11-11-10--0--|


  1.
  S  S S S S S S S S S S S    S  S S S S S S  S S  S   S  S
|--------------------------|---------------------------------||
|--------------------------|--------------------------------o||
|--------------------------|--------------------------------o||
|-2--2-2-2-2-2-2-2-2-2-2-0-|--7--7-0-7-7-0-5--5-0-11--12-11--||


  2.
  S  S S S S S S S S S S S    S  S S S S S S  S S  S  S S
|--------------------------|------------------------------||
|--------------------------|------------------------------||
|--------------------------|------------------------------||
|-2--2-2-2-2-2-2-2-2-2-2-0-|--7--7-0-7-7-0-5--5-0--5--5-0-||


   Chorus
    $$
    S S S S S S S S S S S S    S  S S S  S  S  S  S  S  S S S
||--------------------------|---------------------------------|
||o-------------------------|---------------------------------|
||o-------------------------|---------------------------------|
||--4-4-4-4-4-4-4-4-4-4-4-0-|-12-12-0-0-12-14-12-12-12-12-9-6-|


                                      To Dbl. Coda
  S S S S S S S S S S S S   S S S S S S S S S S S S  4x
|-------------------------|--------------------------||
|-------------------------|-------------------------o||
|-------------------------|-------------------------o||
|-2-2-2-2-2-2-2-2-2-2-2-2-|-7-0-0-0-0-0-7-0-0-0-0-0--||


 Bridge
  S S Q  e Q    S S Q  S  S  S S E
|-------------|--------------------|
|-------------|--------------------|
|-------------|--------------------|
|-8-8----8----|-8-8----8-10-11-----|


  S S S S S S S S S S S S   S S S S S S  S  S  S  S E
|-------------------------|---------------------------|
|-------------------------|---------------------------|
|-------------------------|---------------------------|
|-6-6-6-6-6-6-6-6-6-6-6-6-|-6-6-6-6-6-6-11-11-11-10-8-|


  S S S S S S S S S S S S   S S S S S S  S  S  S  S E
|-------------------------|---------------------------||
|-------------------------|---------------------------||
|-------------------------|---------------------------||
|-8-8-8-8-8-8-8-8-8-8-8-8-|-8-8-8-8---8-11-11-11-10---||


 Verse
                  D.S. al Coda
  S S +Q   Q.     S S +Q   Q.
|---------------|---------------|
|---------------|---------------|
|---------------|---------------|
|-6-6-(6)--4----|-3-3-(3)--1----|


  &
  S S Q  e Q    S S Q  e Q
|-------------|-------------||
|-------------|-------------||
|-------------|-------------||
|-8-8----8----|-8-8----8----||


   Pre-Chorus
    S  S S S S S S S S S S S    S  S S S S S S  S  S  S  S  S
||---------------------------|---------------------------------|
||o--------------------------|---------------------------------|
||o--------------------------|---------------------------------|
||--8--8-8-8-8-8-8-8-8-8-8-8-|--8--8-8-8-8-8-8-10-11-11-10--0--|


 Outro
  &&
  S S S S S S S S S S S S   S S S S S S S S S S S S
|-------------------------|-------------------------|
|-------------------------|-------------------------|
|-------------------------|-7-7-7-7-7-7-7-7-7-7-6-4-|
|-7-7-7-7-7-7-7-7-7-7-7-9-|-------------------------|


  S S S S S S S S S S S S   S S S S S S S S S S S S
|-------------------------|-------------------------|
|-------------------------|-------------------------|
|-------------------------|-------------------7-7---|
|-2-2-2-2-2-2-2-2-2-2-2-2-|-4-4---4-4---7-7---------|


    S S S S S S S S S S S S   S S S S S S S S S S S S
||--------------------------|-------------------------|
||o-------------------------|-------------------------|
||o-------------------------|-------------------------|
||--7-7-7-7-7-7-7-7-7-7-7-9-|-0-0-0-0-0-0-0-0-0-0-0-0-|


  S S S S S S S S S S S S   S S S S S S S S S S S S  4x
|-------------------------|--------------------------||
|-------------------------|-------------------------o||
|-------------------------|-------------------7-7---o||
|-2-2-2-2-2-2-2-2-2-2-2-2-|-4-4---4-4---7-7----------||


  S S S S S S S S S S S S   S S S S S S S S S S S S
|-------------------------|-------------------------|
|-------------------------|-------------------------|
|-------------------------|-7-7-7---7---7-7-7-7-6---|
|-7-7-7-7-7-7-7-7-7-7-7-9-|-------0---0-----------7-|


  S S S S S S S S S S S S   S S S S S S S S S S S S   +E   Q  Q.
|-------------------------|-------------------------|--------------*|
|-------------------------|-------------------------|--------------*|
|-------------------------|-------------------7-7---|--------------*|
|-2-2-2-2-2-2-2-2-2-2-2-2-|-4-4---4-4---7-7-------7-|-(7)\---------*|

===============================================================================

 9.The Velourium Camper III: Al the Killer(Unknown)

Verse
|-------||-----------------------------||---------------|
|-------||-----------------------------||---4-----5---5-|
|-------||----320---------320----------||-----4---------|
|-2-2-2-||-222---333333333---222222222-||-2-----3---3---|

Pre-verse
|--------------------------------------|
|--------------------------------------|
|-2-2-2-2------------------------------|
|---------2-2-2-3-4-5-6-7-888-999-1010-|

Chorus
|--------------------------------------------------||--------------------|
|--------------------------------------------------||--------------------|
|-----------------5555555555555555-----------------||---77--77--77-55-44-|
|-7777777777777777----------------3333333333333333-||-77--77--55---------|

Bridge
|----------------------------------------------------------------------||----|
|----------------------------------------------------------------------||----|
|-999999999999999-7-9999999999999999-----------------------------------||----|
|-----------------------------------555555555555555-3-5555555555555555-||-2r-|

on the last chorus end on
|----|
|----|
|----|
|-7r-|

===============================================================================

 10.A Favor House Atlantic(zeroisgreatman)

 Intro:
G|-----------------4-6-------|
D|---------------------4-----|
A|-4-4-4-4-4-4-4-0-------7-6-|
E|---------------------------|

Verse: "Your eyes tell the stories of a day you wish you could"
G|-----------------------------------------------------------|
D|-----------------------------------------------------------|
A|-0-0-0-0-0-0-0-0-0-0-0-0--2-2-2-2-2-2-2-2--4-4-4-4-4-4-4-4-|
E|-----------------------------------------------------------|

Pre-Chorus: "Good eye, sniper, I'll shoot, you run"
G|-------------------------------------------------|
D|-------------------------------------------------|
A|-0-0-0-0-0-0-0-0-0-0-0-0-0-0-0-0-0-0-0-0-0-0-0-0-|
E|-------------------------------------------------|

Chorus: "The words you scribbled on the walls"
G|--------------------|
D|--------------------|
A|------0-0--4-4--2-2-|
E|-0-0----------------|

"Are you in?, or are you out?"
G|-------------------------------------------------|
D|-------------------------------------------------|
A|-0-0-0-0-0-0-0-0-0-0-0-0-0-0-0-0-0-0-0-0-0-0-0-0-|
E|-------------------------------------------------|

"All--oo-oo-oo--"
G|------------------------------------|
D|------------------------------------|
A|-4-4-4-4--2-2-2-2--0-0-0-0----------|
E|----------------------------0-0-0-0-|

Bridge: "Bye-bye beautiful, don't bother to write..."
G|--------------------------------------------------------|
D|--------------------------------------------------------|
A|--------------------------0-0-0-0-0-0-0-0-0-0-0-0-0-0-0-|
E|-0-0-0-0-0-0-0-0-0-0-0-0--------------------------------|

"Disturbed by your words and they're calling all..."
G|--------------------------------------------------|
D|--------------------------------------------------|
A|-4-4-4-4-4-4-4-4-4-4-4-4--0-0-0-0-0-0-0-0-0-0-0-0-|
E|--------------------------------------------------|

"Face step let down, Face step step down"
G|-----------------------------------|
D|-----------------------------------|
A|-0-0-0-0-0-0-0-0-0-0-0-0-0-0-0-0-0-|
E|-----------------------------------|

End:
G|----------|
D|----------|
A|-7-6------|
E|-----7-0~-|

===============================================================================

  11.The Light & The Glass(choke383)

 Verse
G|------------------------------|.------------------------------------------.|
D|------------------------------|.------------------------------------------.|
A|-------2-----------2--4--5----|.------4-5--5--------2--2--5----2--4--5----.|
E|3-------------3-------------3-|.--5-7---------3--3----------3-----------3-.|x3


1:47
G|-------------------------------------------------|
D|-------------------------------------------------|
A|-------------------------------------------------|
E|5-5-5-5-5-5-5-5-5-5-5-5-3-3-3-3-3-3-3-3-3-3-3-3--|x2


2:08
G|-----------------------------|
D|-----------------------------|
A|-----------------------------|
E|777777-555555-555555-333333--|x4


2:29
G|------------------------------------|
D|------------------------------------|
A|------------------------------------|
E|77-7-77--55-5-55--33-3-33--33-3-33--|x2 (last time play 2 threes instead of the second set


2:49
G|--------------------------|
D|---979--------------------|
A|77-----55-57-33-55-77-99--|
E|--------------------------|x4


3:09
G|--------------------------------------------------------------------------|
D|--------------------------------------------------------------------------|
A|-----------------------333333333333333333333333------------------------3--|
E|55555555555555555555555------------------------555555555555555555555555---|


3:29
G|-------------------------------------------------------------|
D|-------------------------------------------------------------|
A|5--7--9-'9'-9-'7'-5---5--5--5--5--7--9-'9'-9-'7'-5---5--5--|
E|---------------------3-------------------------------3-------|

G|-----------------------------------|------|
D|-----------------------------------|------|
A|----4-5--7--9-'9'-9-'7'-5---5--5--|------|
E|5-7------------------------3-------|x2|-5-|


4:11
G|-----------------------------|
D|-----------------------------|
A|-----------------------------|
E|777777-555555-555555-333333--|x4


4:31
G|------------------------------------|
D|------------------------------------|
A|------------------------------------|
E|77-7-77--55-5-55--33-3-33--33-3-33--|x2 (last time play 2 threes instead of the second set


4:52
G|--------------------------|
D|---979--------------------|
A|77-----55-57-33-55-77-99--|
E|--------------------------|x4


5:12
G|---------------------|
D|---------------------|
A|--------------22-22--|
E|22-------------------|

G|--------------------------------|
D|--------------------------------|
A|----45------45------45--222222--|
E|220---5-220---5-220---5---------|


5:31
G|--------------------------------|
D|------------------------55------|
A|--------33--55------------------|
E|55--66----------55--66------33--|x2


5:44   
G|--------------------------------------------------------------------|
D|--------------------------------------22244455----------------------|
A|----------------------------------------------33333333333333333333--|
E|3-0--0-53-2h3-3-0--0-3h5-3-2-3-000000------------------------------|x4


6:35
G|----------------------------------------------------|
D|----------------------------------------------------|
A|-------------555555555577-333333333333333333333333--|
E|000000000000----------------------------------------|x8 (2 last fade)

===============================================================================
comments
print report bad tab
2 comments total.
0 reply
PurpleDinosaur wrote on July 2 2008, 09:38 pm

Good idea with the compilation... but where's 2113? That's the like most important song of the album.

0 reply
SoftParade1967 wrote on July 14 2008, 07:10 pm

Its good but theres no 21:13

I want to post or [tab]
guest
You may want to rate the tab now too:
select rating
Please do not post tabs as comments. Select "correction" instead!