Oops, an error
Loading. Please wait.

In Keeping Secrets Of Silent Earth 3 Tab

ver1
ver1

Album

Whole song

Interactive

More versions @911Tabs.com
51,510 views 48 this week
6 commentsread comments
1 2 3 4 5
accurate
x 11
Autoscroll
+/-
esc
set tempo
stop
Contributor
Hey! There's an official Ultimate Guitar app which is ideal
for learning songs when you're away from computer. Get the app
WARNING: You are trying to view
                                    content from Ultimate-Guitar.com
                                    in an unauthorized application,
                                    which is prohibited.

                                    Please use an official Ultimate
                                    Guitar Tabs application for iPhone,
                                    iPad or Android to access legitimate
                                    chords, guitar, bass, and drum tabs
                                    from Ultimate-Guitar.com database.

                                    Type "ultimate guitar tabs" in Apple
                                    App Store's or Android Market's
                                    search to find the application.
hey guys I DID NOT TAB THIS joecool71 did ....he is the best tabber...in the known universe i
just thought i'd make it easier for everyone.



------------------------------------------------------------------------
      IN KEEPINS SECRETS OF SILENT EARTH: 3 - Coheed and Cambria
------------------------------------------------------------------------

Tabbed by: joecool71
Email: mattconnellan@yahoo.com

Tuning:Standard

This is the first in my series of Coheed tabs. I hope that soon I will have the entire
cd on this website, but whew! These songs are long and complicated, so enjoy! The
lyrics at the end will have the key of when you're supposed to play the parts & how
many repeats there are.

1st half intro
e|---------------------------------------------------------------------->
B|---------------------------------------------------------------------->
G|---------------------------------------------------------------------->
D|---------------------------------------------------------------------->
A|---11-11---11-11---11---12-11-----11-11---11---11-12-14-12-11-11h12-0->
E|-9-------9-------9----9-------9-0-------0----0------------------------>

e|------------------------------------------------|
B|------------------------------------------------|
G|------------------------------------------------|
D|----------------------------------------------9-|
A|-----9-9-9---9-9---9---9/11-9-7p0-----7-7---7---|
E|-0h7-------7-----7---7------------0h5-----5-----|

1st half intro, lead
e|-----------------------------------------------------------|
B|-----------------------------------------------------------|
G|-9---8--6-8-9-11---13~---11-9-8-9-8-6-8---6-8-9-11---13~~~-|
D|-----------------------------------------------------------|
A|-----------------------------------------------------------|
E|-----------------------------------------------------------|

2nd half intro/Chorus (chords)
e|----------------|
B|----------------|
G|----------------|
D|-11---2---9---7-|
A|-11---2---9---7-|
E|-9----0---7---5-|

2nd half intro, lead
e|---------------------------|--|---------------------------------7---7---7---7---4---4---4---4-|
B|---------------------------|--|-----------------------------------5---5---5-------5---5---5---|
G|-999888999888999888-11-9-6-|--|-------------------------------66---6---6---6--66---6---6---6--|
D|-xxxxxxxxxxxxxxxxxx-x--x-x-|X2|-------------6-----9-------------------------------------------|
A|-777666777666777666-9--7-4-|--|-------6-7-9---9-7---7-6-7-6-----------------------------------|
E|---------------------------|--|-6-7-9-----------------------7---------------------------------|

Verse
e|---------------------------------------|
B|---------------------------------------|
G|-6-6-----------------------------8/9\8-|
D|-6-6------6---------9-9--9-9-7-7-x-----|
A|-4-4--4-7---7-6-6h7-9-9--9-9-7-7-6/7\6-|
E|--------------------7-7--7-7-5-5-------|
   . .                . .  . . . .
Pechorus
e|----------------------|--|---------------|
B|----------------------|--|---------------|
G|---------6------------|--|---------------|
D|-444-444-6-6-7-9-6764-|X3|-444-444-6--7--|
A|-444-444-4-6-7-9-6764-|--|-444-444-6--7--|
E|-222-222---4-5-7-4542-|--|-222-222-4--5--|
                   ....
Chorus lead (only played over 2nd measure of chorus riff)
e|-----------------------|
B|-----------------------|
G|-13--13\11--11\9--9/11-|
D|-x---x-------x----x----|
A|-11--11\9----9\7--7/9--|
E|-----------------------|

Phase II
e|-----------------------------------------------|
B|-----------------------------------------------|
G|----------------------------------------420----|
D|-2-2--------2-2--------2-2-----------020---420-|
A|-2-2-2h3-2--2-2-2h3-5--2-2-2h3-2--023----------|
E|-0-0--------0-0--------0-0---------------------|

Phase III
e|----------------|--|--------------------------------|
B|----------------|--|--------------------------------|
G|----------------|--|---9-10-12-10-9p0-7-9-5-7-9-7p0-|
D|---9-10-12-9-10-|X3|-7------------------------------|
A|-7--------------|--|--------------------------------|
E|----------------|--|--------------------------------|

Phase III lead (Lead starts at end of 1st time through)
e|-12-----12-----13p0--12-----12-----12-----10p0--12-----12-----12-----13p0--12------>
B|---10-10--10-10----10--10-10--10-10--10-10----10--10-10--10-10--10-10----10--10-10->
G|----------------------------------------------------------------------------------->
D|----------------------------------------------------------------------------------->
A|----------------------------------------------------------------------------------->
E|----------------------------------------------------------------------------------->

e|-10p0--12p0--13p0--12p0-----------|
B|-----10----10----10----0--8888888-|
G|--------------------------7777777-|
D|----------------------------------|
A|----------------------------------|
E|----------------------------------|

Phase IV
e|----------------------------|
B|----------------------------|
G|--------------------0-------|
D|-----5-53202------0---0-----|
A|---3--------3---5-------5/7-|
E|-1------------3-------------|

Phase V
e|---------------------------------------------------------|
B|---------------------------------------------------------|
G|---------------------------------------------------------|
D|-7------------3----------7------------3------------------|
A|-7---7h8-7\\--3---5--3-2-7---7h8-7\\--3--7-8-10--7-5-----|
E|-5------------1----------5------------1--------------8-7-|
Break
e|---------------3p0---------------------------|
B|-------------------3p1-0h1p0-----0h1p0-------|
G|-10---12---9-----------------2---------2---2-|
D|-10---12---9-------------------3---------3-2-|
A|-----------7-------------------------------0-|
E|---------------------------------------------|

| /  slide up
| \  slide down
| h  hammer-on
| p  pull-off
| ~  vibrato
| +  harmonic
| x  Mute note
===============================================================================


+++ Ultimate Guitar Tabs Archive - your #1 source for tabs! +++
over 70,000 of guitar & bass tabs! Also lessons, news and forums!

--------------------------------------------------------------------------
	   CUTS MARKED IN THE MARCH OF MEN - Coheed and Cambria
--------------------------------------------------------------------------
Tabbed by: joecool71
Email: mattconnellan@yahoo.com

Tuning: Standard

Here is the second tab in my Coheed series... Easier than the last one thank god. Have fun!

Verse
e|---------------------------------------------------|
B|---------------------------------------------------|
G|---------------------------------------------------|
D|---------------------------------------------------|
A|-44-44400-222---444-2-0---44-44400-222---444-2-0---|
E|-22----------44---------4-22----------44---------4-|

Verse lead 1
e|-----------------------------------|
B|------10h12p10\\----12-10----10----|
G|----9---------------------11----11-|
D|-11--------------------------------|
A|-----------------------------------|
E|-----------------------------------|

Verse lead 2 (played only during 3rd time through each verse passage)
e|----------------------16-14-----------------------------------------16-14-------------|
B|-------------15-14-15-------15-14h15p14--------------------15-14-15-------15-14h15p14-|
G|-14-13h14p13----------------------------16-14--14-13h14p13----------------------------|
D|--------------------------------------------------------------------------------------|
A|--------------------------------------------------------------------------------------|
E|--------------------------------------------------------------------------------------|

Prechorus
e|------------------------------|--|--------------|
B|------------------------------|--|--------------|
G|-------------999-777777777777-|--|--------------|
D|-2/4-4/6-6/7-999-777777777777-|X4|-444444444444-|
A|-2/4-4/6-6/7-777-555555555555-|--|-444444444444-|
E|-0/2-2/4-4/5------------------|--|-222222222222-|



Prechorus lead
e|------12--------------------------------------|
B|-9/10----12-10-9-10-9h10p9--------------------|
G|---------------------------11---9----9------9-|
D|----------------------------------11---9-11---|
A|----------------------------------------------|
E|----------------------------------------------|
                                  . .  . . .  .
Chorus (Chords)
e|---------------|
B|---------------|
G|-------------7-|
D|-9---7---5---7-|
A|-9---7---5---5-|
E|-7---5---3-----|

Chorus lead (starts during final bar of prechorus)
e|-0-5-0-9-0-10-0-9-0-7-9-0-5-0-9-0-10-0-9-0-7-9-0-5-0-9-0-12-0-10-0-9-10-0-5-0-9-0-10-0-9-0-7-9-----|
B|---------------------------------------------------------------------------------------------------|
G|---------------------------------------------------------------------------------------------------|
D|---------------------------------------------------------------------------------------------------|
A|---------------------------------------------------------------------------------------------------|
E|---------------------------------------------------------------------------------------------------|

Break
e|----------------------------|
B|----------------------------|
G|----------------------------|
D|-9-7-7-----9-----7-7----4---|
A|-9-7-7---7---4/5-----045-54-|
E|-7-5-5-5--------------------|

Bridge
e|--------------------------------------------------|
B|--------------------------------------------------|
G|--------------------------------------------------|
D|-7-7--7-7--9-9--9-9--12-12--12-12-14-11-11--11-11-|
A|-7-7--7-7--7-7--7-7--10-10--10-10-10-10-10--10-10-|
E|--------------------------------------------------|

Bridge lead 1
e|----------------|
B|-10--12--17--14-|
G|-9---11--16--14-|
D|----------------|
A|----------------|
E|----------------|

Bridge lead 2
e|----------------------|
B|----------------------|
G|-4-3-4-3----7---7-----|
D|---------4----9---9-7-|
A|----------------------|
E|----------------------|

Extra part!!!
e|------------------------------------------------|
B|------------------------------------------------|
G|-------------------------77-7-777-7-777-7-777-7-|
D|-77-77-77-77-77-77-77-77-77-7-777-7-777-7-777-7-|
A|-77-77-77-77-77-77-77-77-55-5-555-5-555-5-555-5-|
E|-55-55-55-55-55-55-55-55------------------------|

| /  slide up
| \  slide down
| h  hammer-on
| p  pull-off
| ~  vibrato
| +  harmonic
| x  Mute note
===============================================================================

+++ Ultimate Guitar Tabs Archive - your #1 source for tabs! +++
over 70,000 of guitar & bass tabs! Also lessons, news and forums!

--------------------------------------------------------------------------
	THREE EVILS (EMBODIED IN LOVE AND SHADOW) - Coheed and Cambria
--------------------------------------------------------------------------

Tabbed by: joecool71
Email: mattconnellan@yahoo.com

Tuning:Standard

The third in my Coheed series, this one wasn't too bad - to figure out, that is.
Playing it is a different story, especially the outro lead. Enjoy!

Verse
e|-------------------------------|--|-----------------------------------------------------------|
B|-------------------------------|--|-----------------------------------------------------------|
G|-------------------------------|--|-----------------------------------------------------------|
D|-7-7--7-7-7--7-9--9---9--11-11-|X2|-7-7-7-7-7-7-7-7-9--9--9--9--11-11-11-11-9-9-9-9-9-9-9-9-9-|
A|-7-7--7-5-5--5-11-11--11-9--9--|--|-7-7-7-7-5-5-5-5-11-11-11-11-9--9--9--9--9-9-9-9-9-9-9-9-9-|
E|-5-5--5-5-5--5-----------------|--|-5-5-5-5-5-5-5-5-------------------------7-7-7-7-7-7-7-7-7-|

Chorus (Chords) (Play 1st part only when entering chorus after each verse)
e|------|-------------------|
B|------|-------------------|
G|----7-|-------------------|
D|-11-7-|-7---9--4---5----7-|
A|-11-5-|-7---9--4---5----7-|
E|-9----|-5---7--2---3----5-|
          .   .  .   .    
Chorus lead
e|------------------------------------------------------------------------------|
B|------------------------------------------------------------------------------|
G|-13----13--------14----13--------12----12--------12---------------------------|
D|----14----14--------14----14--------12----12--------12---12p11----12----11h12-|
A|-------------16--------------16--------------14----------------12----12-------|
E|------------------------------------------------------------------------------|

Break
e|-----------------------------------------|
B|-----------------------------------------|
G|-------------------------777777777777777-|
D|-44444444----------------777777777777777-|
A|-44444444-0245-402---0-7-555555555555555-|
E|-22222222----------4---------------------|

Bridge
e|----------------------------------------------------------------|
B|----------------------------------------------------------------|
G|-4444444444444444444444444444444477777777777777777-66-66-99-9-9-|
D|-4444444444444444444444444444444477777777777777777-77-77-77-7-7-|
A|-2222222222222222222222222222222255555555555555555-77-77--------|
E|----------------------------------------------------------------|

Outro (Chords)
e|----------------------------------|
B|----------------------------------|
G|-----------------7----------------|
D|-7---7---4---2---7----------------|
A|-7---7---4---2---5---4-5---4-5-4--|
E|-5---4---2---0-----------5--------|

Outro lead 1
e|-----------------9----9----9----9----12----12----12----12----12----->
B|---9-10----9-10---10---10---10---10----10----10----10----10----10--->
G|-9-------9----------11---11---11---11----11----11----11----11----11->
D|-------------------------------------------------------------------->
A|-------------------------------------------------------------------->
E|-------------------------------------------------------------------->
                   .. . .. . .. . .. . . . . . . . . . . . . . . . .

e|----------12-------12-------12-------12-------12-------12-------12-------12----12-------------|
B|----14-15-------14-------14-------14-------14-------14-------14-------14----------14----14----|
G|-16----------16-------16-------16-------16-------16-------16-------16-------16-------16----14-|
D|----------------------------------------------------------------------------------------------|
A|----------------------------------------------------------------------------------------------|
E|----------------------------------------------------------------------------------------------|

Outro lead 2
e|-12-------12--------------12-------12--------------12-------12------------->
B|-------14----14----14-----------14----14----14-----------14----14----14---->
G|----16----------16----13-----16----------16----11-----16----------16------->
D|------------------------------------------------------------------------14->
A|--------------------------------------------------------------------------->
E|--------------------------------------------------------------------------->

e|----------12-------12-------12-------12-------12-------12-------12|------12----12-------------|
B|----14-15-------14-------14-------14-------14-------14-------14---|---14----------14----14----|
G|-16----------16-------16-------16-------16-------16-------16------|16-------16-------16----14-|
D|------------------------------------------------------------------|---------------------------|
A|------------------------------------------------------------------|---------------------------|
E|------------------------------------------------------------------|---------------------------|


Outro lead 2 alternate ending
e|----------------------------|
B|----15-14-15-14----14-------|
G|-16-------------16----16-14-|
D|----------------------------|
A|----------------------------|
E|----------------------------|

| /  slide up
| \  slide down
| h  hammer-on
| p  pull-off
| ~  vibrato
| +  harmonic
| x  Mute note
===============================================================================


+++ Ultimate Guitar Tabs Archive - your #1 source for tabs! +++
over 70,000 of guitar & bass tabs! Also lessons, news and forums!

--------------------------------------------------------------------------
		       THE CROWING - Coheed and Cambria
--------------------------------------------------------------------------

Tabbed by: joecool71
Email: mattconnellan@yahoo.com

Tuning: Standard

Here is the fourth in my Coheed series... And the opus of the cd in question. With a full 8 PHASES!!!
This song is long, complicated, and incredibly badass. Have fun!!

Verse (Played only during 1st measure each time through verse)
e|---------------------------------------------------|
B|---------------------------------------------------|
G|---------------------------------------------------|
D|-55-55-55-55-44-44-44-44-44-44-44-44-22-22---------|
A|-77-77-77-77-55-55-55-55-22-22-22-22-33-33-0320----|
E|-----------------------------------------------303-|

Verse (Played all other times during verse)
e|---------------------------------------------------|
B|---------------------------------------------------|
G|---------------------------------------------------|
D|-55-55-55-55-77-77-77-77-44-44-44-44-55-55---------|
A|-77-77-77-77-55-55-55-55-55-55-55-55-33-33-0320----|
E|-----------------------------------------------303-|

Chorus
e|--------------------------------------------|
B|--------------------------------------------|
G|-------0--------0-------0-4br-0-----0-4br-0-|
D|-----4--------4---0---5-----------5---------|
A|---2--------2-------3-----------3-----------|
E|-0--------0---------------------------------|

Chorus lead (Comes in on 2nd part 1st time through each chorus)
e|---7--8--10--5--7-|--|--------8-7-------|--|
B|-/8-88-88--99-88--|--|---8-10-----8-----|--|
G|------------------|--|-9------------7/9-|--|
D|------------------|X2|------------------|X2|
A|------------------|--|------------------|--|
E|------------------|--|------------------|--|

Phase II
e|-------------------------|--|
B|-------------------------|--|
G|-5555-5555-55-7777-7777-4|--|
D|-5555-5555-55-7777-7777-4|X4|
A|-3333-3333-33-5555-5555-2|--|
E|-------------------------|--|

Phase II lead
e|-----------12-10----------------------------12-10------------->
B|-/12-13-12-------13-12-10-8-10-8--/12-13-12-------13-12h13p12->
G|-------------------------------------------------------------->
D|-------------------------------------------------------------->
A|-------------------------------------------------------------->
E|-------------------------------------------------------------->

e|------------------------------------------------------------------|
B|------------------------------------------------------------------|
G|------------------------------------------------------------------|
D|-10p9-10-9-10-12-10-9-----------------10p9-10-9-10-12-10-12-14-12-|
A|----------------------12-10-9-10-9--------------------------------|
E|-----------------------------------10-----------------------------|

Phase III
e|------------------|--|--------------------------------|
B|------------------|--|--------------------------------|
G|------------------|--|----------------------5-4-5-4---|
D|----9---10---12-9-|X2|----7---9---10-7------5-4-5-4-5-|
A|-7777-777--777--7-|--|-7777-777-777--7--555-3-2-3-2-5-|
E|-0000-000--000--0-|--|-5555-555-555--5--333---------3-|
   ...  ..   ..          ...  ..  ..      ...
Phase III lead
e|------10-8-8-7----7----------|--|-----------------------------------------------|
B|----8----------10---10-8-10\-|--|------10-8-8-7---7-8---/12-10------10----------|
G|-/9--------------------------|--|-/7-9----------9-----9--------12-9----9-11-7-9-|
D|-----------------------------|X2|-----------------------------------------------|
A|-----------------------------|--|-----------------------------------------------|
E|-----------------------------|--|-----------------------------------------------|

Phase IV
e|-------------------------------------------------------|
B|-----------------------------------------8-------1-3-0-|
G|------------------------------------0h5h7------0-------|
D|-222222222222222222222222------0h5h7---------2---------|
A|-222222222222222222222222-0h5h7------------3-----------|
E|-000000000000000000000000------------------------------|
    ....... ... ... .......
Phase V
e|------------------------------------------------------------------------------------|
B|------------------------------------------------------------------------------------|
G|-44-22-44-22-44-22-5p4p0-----5p4p0-----5--44-22-44-22-44-22-5p4p0-----5p4p0-----5/7-|
D|-44-22-44-22-44-22------5p4p0-----5p4p0---44-22-44-22-44-22------5p4p0-----5p4p0----|
A|-22-00-22-00-22-00------------------------22-00-22-00-22-00-------------------------|
E|------------------------------------------------------------------------------------|

Phase VI
e|----------------|--|---------|--|
B|----------------|--|---------|--|
G|----------------|--|---------|--|
D|-----9p0-----11-|X4|------12-|X2|
A|---7-------9----|--|---10----|--|
E|-5-------7------|--|-8-------|--|

Phase VII
e|-------------------------------------------------|
B|-------------------------------------------------|
G|-44----44----44----44----------------------------|
D|-44-22-44-22-44-22-44-22-55-22-55-22-55-22-55-22-|
A|-22-22-22-22-22-22-22-22-55-22-55-22-55-22-55-22-|
E|----00----00----00----00-33-00-33-00-33-00-33-00-|
   .. .. .. .. .. .. .. .. .. .. .. .. .. .. .. ..
Phase VII lead
e|-----------------------------------|
B|-10-12---10-12-14br--10------10-12-|
G|-------------------------11--------|
D|-----------------------------------|
A|-----------------------------------|
E|-----------------------------------|

Phase VIII 
e|-------------------------------------------------------------------|
B|-------------------------------------------------------------------|
G|-----------------7777777777777777----------------99999999----------|
D|-44444444444444447777777777777777777777777777777799999999-40--0-40-|
A|-44444444444444445555555555555555777777777777777777777777-20-40-20-|
E|-2222222222222222----------------5555555555555555------------2-----|

Phase VIII lead
e|----------------------------------------|
B|----------------------------------------|
G|----------------------------------------|
D|-7-6-7-6------7-6---6------7-6-7-9--7---|
A|---------9-7------9---9-7-------------9-|
E|----------------------------------------|

| /  slide up
| \  slide down
| h  hammer-on
| p  pull-off
| ~  vibrato
| +  harmonic
| x  Mute note
===============================================================================



+++ Ultimate Guitar Tabs Archive - your #1 source for tabs! +++
over 70,000 of guitar & bass tabs! Also lessons, news and forums!

--------------------------------------------------------------------------
		BLOOD RED SUMMER - Coheed and Cambria
--------------------------------------------------------------------------

Tabbed by: joecool71
Email: mattconnellan@yahoo.com

Tuning: Standard

Here's my fifth installment in the Coheed series, and a welcome break after The Crowing. Enjoy!!

Verse
e|--------------------------------------------------------------------|
B|--------------------------------------------------------------------|
G|--------------------------------------------------------------------|
D|-999999999999999-8999999999999999-----------------------------------|
A|-777777777777777-6777777777777777-777777777777777-67777777777777777-|
E|----------------------------------555555555555555-45555555555555555-|
    ..............   ..............  ..............   ...............
Verse lead
e|-------------------------------------------------------------------------------|
B|-------------------------------------------------------------------------------|
G|-------------------------------------------------------------------------------|
D|-------------------------------------------------------------------------------|
A|-------7--------7----------7---------------------------------------------------|
E|-0-7h9---7-77-9---7--0-7h9---7-9-5-4-2-0--0-0h2-4-5-4-2-4-0--0-0h2-4-5-4-2-4-0-|

Fills 1 & 2
e|----------|-------------|
B|----------|-------------|
G|----------|-------------|
D|----------|-------------|
A|----------|-77-66-55-44-|
E|-4-5--7-4-|-------------|

Chorus 
e|---------------------------------------------------------------------|
B|---------------------------------------------------------------------|
G|-----------------------------------999999999999999-79999999999999999-|
D|-9999999999999999-7777777777777777-999999999999999-79999999999999999-|
A|-9999999999999999-7777777777777777-777777777777777-57777777777777777-|
E|-7777777777777777-5555555555555555-----------------------------------|


Chorus lead
e|---------------------------------------------------------------------|
B|---------------------------------------------------------------------|
G|--------------------------------------99--99--99-9-9--99--99--99-9-9-|
D|-----7-6-6-----6------------------7-9---99--99--9----9--99--99--9----|
A|-7-9-------7-9---7---------7-9-11------------------------------------|
E|--------------------7-9-11-------------------------------------------|

Bridge (chords)
e|----------------|
B|----------------|
G|----------------|
D|-11---9---7---7-|
A|-11---9---7---7-|
E|-9----7---5---5-|

Bridge lead
e|------------------------------------------------------------------------------|
B|----------9-10-9------------------9-10-9--------------------------------------|
G|-6h9-9/11--------11-9-6--9p6-9/11--------11-9--9-8-9-11-9-8----9-8-9-11-9---8-|
D|------------------------------------------------------------9-------------9---|
A|------------------------------------------------------------------------------|
E|------------------------------------------------------------------------------|

| /  slide up
| \  slide down
| h  hammer-on
| p  pull-off
| ~  vibrato
| +  harmonic
| x  Mute note
===============================================================================



+++ Ultimate Guitar Tabs Archive - your #1 source for tabs! +++
over 70,000 of guitar & bass tabs! Also lessons, news and forums!

--------------------------------------------------------------------------
	THE CAMPER VELOURIUM I: FAINT OF HEART - Coheed and Cambria
--------------------------------------------------------------------------

Tabbed by: Joecool71
Email: mattconnellan@yahoo.com

Tuning: Standard

Well, a couple of things about this sixth song in my Coheed series: First off,
the opening solo is killer. Secondly, I cannot pick out the two separate guitar
parts of phase V, so I just melded them into one part. Other than that, enjoy!!

Intro/Verse
e|-------------------------------------------|-----------|--|
B|-------------------------------------------|-----------|--|
G|-------------------------------------7-----|-----------|--|
D|-9-7-9-5-5-5-4-0-0h4-7-------5-0-5-5---4-0-|-----------|x2|
A|-7-5-7-----------------5-5-0-3-0-3---------|-----------|--|
E|-------------------------------------------|-7-8-7-8-7-|--|
                                               . . . . .
Additional endings to verse riff
e|----------|----------|
B|----------|----------|
G|----------|----------|
D|-----99---|-----5----|
A|---77--7\-|-5-7---7\-|
E|-00-------|----------|

Intro lead
e|-12-10-8----6-------------------------------------12-15-17-15-12-15-12----12---------->
B|---------10---7-10----8----8-8-8-7----------12-15----------------------15----12------->
G|-------------------11---9----------7-9-9-7--------------------------------------14-12->
D|-------------------------------------------------------------------------------------->
A|-------------------------------------------------------------------------------------->
E|-------------------------------------------------------------------------------------->

e|-----------------------------|
B|-----------------------------|
G|-12-11----11----------12-----|
D|-------14----12-12-14----14\-|
A|-----------------------------|
E|-----------------------------|

Chorus (chords)
e|---------------|--|-------------------|
B|---------------|--|-------------------|
G|---------5---5-|--|---------9---7---5-|
D|-5---2---5---5-|X3|-7---7---9---7---5-|
A|-5---2---3---3-|--|-7---7---7---5---3-|
E|-3---0---------|--|-5---5-------------|
   .   .   .   .      .   .   .   .
Chorus lead 1
e|----------------------------------------|--|-------------|--|
B|----12--------12--------12--------12----|--|-12----------|--|
G|-------12--------12--------12--------12-|--|----12-11-12-|--|
D|-12--------12--------12--------12-------|X2|-------------|X4|
A|----------------------------------------|--|-------------|--|
E|----------------------------------------|--|-------------|--|

Chorus lead 2
e|----------------------|--|
B|----------------------|--|
G|----------------------|--|
D|-5-5h7--5-5-7/9\7-5h7-|x4|
A|----------------------|--|
E|----------------------|--|

Phase II
e|---------------------------------------------|
B|---------------------------------------------|
G|-----4h5-4-2-0-----4h5-4-0---5555555-9-9-7-7-|
D|-5-5-----------5-5---------4-5555555-9-9-7-7-|
A|-5-5-----------5-5-----------3333333-7-7-5-5-|
E|-3-3-----------3-3---------------------------|

Phase III (chords)
e|------------|
B|------------|
G|------------|
D|-7---9---10-|
A|-7---9---10-|
E|-5---7---8--|
   .   .   .
Phase III lead
e|---------------------------------|--|
B|---------------------------------|--|
G|---------------------5-7-5-4h5p4-|--|
D|-5-7-9-5-7-7-4-5-7-9-------------|x3|
A|---------------------------------|--|
E|---------------------------------|--|
   . . . . . . . . . . . . . 
Phase IV
e|--------------------------------------------|
B|--------------------------------------------|
G|--------------------------------------------|
D|-7---9-10-9-5-2-222-222-222-222-222-222-222-|
A|-7---9-10-9-5-2-222-222-222-222-222-222-222-|
E|-5---7-8--7-3-0-000-000-000-000-000-000-000-|
                . ... ... ... ... ... ... ...
Fill 1
e|---------------|--|---------|
B|---------------|--|---------|
G|---------------|--|---------|
D|---------------|X3|-3-3-3-3-|
A|---3-5-3-2-0---|--|-3-3-3-3-|
E|-0-----------3-|--|-1-1-1-1-|

Phase V
e|------------------------------------------------------------|
B|--------10--7-8-----------------------------------3-0-1---0-|
G|-0--7-9---------5--0-7-9-7-5-4---0--4-5-7--4-5-2--------2---|
D|------------------------------------------------------------|
A|------------------------------------------------------------|
E|------------------------------------------------------------|

Phase VI (chords)
e|---------------|--|
B|---------------|--|
G|-7---7---9---5-|--|
D|-7---7---9---5-|X2|
A|-5---5---7---3-|--|
E|---------------|--|

Phase VI lead
e|-0-10-8-7-5-7-5-3-0-10-8-7\---------------------------------------------|
B|--------------------------------------10-----------------------------10-|
G|----------------------------7h9-7---7----7-4-7-7p4-7/9-7---7h9-7---7----|
D|----------------------------------9----------------------9-------9------|
A|------------------------------------------------------------------------|
E|------------------------------------------------------------------------|

Fill 2
e|-----------------|
B|-10h12p10--------|
G|----------12---9-|
D|-----------------|
A|-----------------|
E|-----------------|

| /  slide up
| \  slide down
| h  hammer-on
| p  pull-off
| ~  vibrato
| +  harmonic
| x  Mute note
===============================================================================



+++ Ultimate Guitar Tabs Archive - your #1 source for tabs! +++
over 70,000 of guitar & bass tabs! Also lessons, news and forums!

--------------------------------------------------------------------------
    THE CAMPER VELOURIUM II: BACKEND OF FOREVER - Coheed and Cambria
--------------------------------------------------------------------------

Tabbed by: joecool71
Email: mattconnellan@yahoo.com

Tuning: Standard

Seventh in my Coheed series, I really don't have much to say about this one. 

Intro
e|-------------------------|--|
B|-------------------------|--|
G|---0-1-3-0-1---0---------|--|
D|-------------3---1-3-0-1-|X4|
A|-3-----------------------|--|
E|-------------------------|--|
   . . . . . . . . . . . .
Intro lead
e|-------------------|
B|-------------------|
G|-------------------|
D|-5-----5-5-----5-5-|
A|-3-----3-3-----3-3-|
E|-------------------|

Verse
e|-------------------------|--|-------------------------|--|-------------------------|--|
B|-------------------------|--|-------------------------|--|-------------------------|--|
G|---0-1-3-0-1---0---------|--|---3-4-6-3-4---3---------|--|---0-1-3-0-1---0---------|--|
D|-------------3---1-3-0-1-|X4|-------------6---4-6-3-4-|X2|-------------3---1-3-0-1-|X2|
A|-3-----------------------|--|-6-----------------------|--|-3-----------------------|--|
E|-------------------------|--|-------------------------|--|-------------------------|--|
   . . . . . . . . . . . .      . . . . . . . . . . . .      . . . . . . . . . . . . 
Verse lead (1st part is played only once at the beginning of each verse, replacing 1st 2 chords)
e|---|-------------------------------------------------------------------------------|
B|---|-------------------------------------------------------------------------------|
G|---|-------------------------------------------------------------------------------|
D|-3-|-5-5---5---8-8---8---5-5---5---6-6---6---8-8---8---9-9---9---5-5---5---6-6---6-|
A|-1-|-6-6---6---5-5---5---3-3---3---5-5---5---6-6---6---8-8---8---3-3---3---5-5---5-|
E|---|-------------------------------------------------------------------------------|


Prechorus (chords)
e|------------|
B|------------|
G|------------|
D|-5------4---|
A|-3---4--2-2-|
E|-----2----0-|
   .   .  . .
Chorus (chords)
e|---------------|--|
B|---------------|--|
G|-----9---------|--|
D|-6---9---4---2-|X4|
A|-6---7---4---2-|--|
E|-4-------2---0-|--|

Chorus lead
e|-------------------------------------4---4---4---4--7--7--7-----|-->
B|-7p4-4---7p4-4---5p4-4---5p4-4---------------------4--4--4-4-7p4|-->
G|----7-7p4---7-7p4---6-6p4---6-6p4-4h6-4h6-4h6-4h6-6--6--6-------|-->
D|----------------------------------------------------------------|X3>
A|----------------------------------------------------------------|-->
E|----------------------------------------------------------------|-->

e|-------------------------------------4---4---4---4--7--7--7--7-|
B|-7p4-4---7p4-4---4h5p4-4-4h5p4-4-------------------4--4--4--4--|
G|----7-7p4---7-7p4-----6-4-----6-4-4h6-4h6-4h6-4h6-6--6--6--6---|
D|---------------------------------------------------------------|
A|---------------------------------------------------------------|
E|---------------------------------------------------------------|

Fill
e|-----------------------------------------------------------------------------------------|
B|-----------------------------------------------------------------------------------------|
G|---0-1-3-0-1---0-----------0-1-3-0-1---0----------0-1-3-0-1---0-----------0-1-3----0-1-3-|
D|-------------3---1-3-0-1-------------3---1-0----------------3---1-3-0-1------------------|
A|-3-----------------------3-------------------3--3-----------------------3--------3-------|
E|-----------------------------------------------------------------------------------------|

Outro
e|---------------------------------------------------|
B|---------------------------------------------------|
G|-------------9999999999999-------------------99-99-|
D|-9999999999999999999999999444444444444-66-66-99-99-|
A|-9999999999997777777777777444444444444-66-66-77-77-|
E|-777777777777-------------222222222222-44-44-------|


Outro lead
e|-------7-|
B|-4-------|
G|---------|
D|---------|
A|---------|
E|---------|

| /  slide up
| \  slide down
| h  hammer-on
| p  pull-off
| ~  vibrato
| +  harmonic
| x  Mute note
===============================================================================


+++ Ultimate Guitar Tabs Archive - your #1 source for tabs! +++
over 70,000 of guitar & bass tabs! Also lessons, news and forums!

--------------------------------------------------------------------------
    THE CAMPER VELOURIUM III: AL THE KILLER - Coheed and Cambria
--------------------------------------------------------------------------

Tabbed by: joecool71
Email: mattconnellan@yahoo.com

Tuning: Standard

This is the eighth song in my Coheed series, and a pretty cool one at that.
The lead chorus riff is badass. Enjoy!!

Intro
e|---------------------------------------------------------------------------------------------|
B|---------------------------------------------------------------------------------------------|
G|---------------------------------------------------------------------------------------------|
D|-------5-6-0-------------------6-5-0-------------------5-6-0-------------------6-5-0-5--5--5-|
A|-5-5-5-3-4-0-6-6-6-6-6-6-6-6-6-4-3-0-5-5-5-5-5-5-5-5-5-3-4-0-6-6-6-6-6-6-6-6-6-4-3-0-5--5--5-|
E|-3-3-3-------4-4-4-4-4-4-4-4-4-------3-2-3-3-3-3-3-3-3-------4-4-4-4-4-4-4-4-4-------3--3--3-|

Verse
e|-------------------------------------------------|
B|-------------------------------------------------|
G|-------------------------------------------------|
D|-------5-6-0-------------------6-5-0-------------|
A|-5-5-5-3-4-0-6-6-6-6-6-6-6-6-6-4-3-0-5-5-5-5-5-5-|
E|-3-3-3-------4-4-4-4-4-4-4-4-4-------3-3-3-3-3-3-|

Fill 1
e|-----------------|
B|-----------------|
G|-----------------|
D|---5-----3---3/5-|
A|-3---5-0---4-----|
E|-----------------|

Fill 2
e|------------------------------------------------------------------|
B|------------------------------------------------------------------|
G|------------------------------------------------------------------|
D|-9--9--9-9-9-9-9--9--9-9-9-9-9--9--9-9-9--10-10-10-11-11-11-12-12-|
A|-7--7--7-7-7-7-7--7--7-7-7-7-7--7--7-7-7--8--8--8--9--9--9--10-10-|
E|------------------------------------------------------------------|

Fill 3
e|---------------------------------------------|
B|---------------------------------------------|
G|---------------------------------------------|
D|-------5-6-0-------------------6-5-0-5--5--5-|
A|-5-5-5-3-4-0-6-6-6-6-6-6-6-6-6-4-3-0-5--5--5-|
E|-3-3-3-------4-4-4-4-4-4-4-4-4-------3--3--3-|

Chorus
e|--------------------------------------------------------------------------|
B|--------------------------------------------------------------------------|
G|-----------------7777777777777777--------------------99----99----55-44----|
D|-999999999999999977777777777777775555555555555555-99-99-99-99-55-55-44-55-|
A|-999999999999999955555555555555555555555555555555-99-77-99-77-55-33-22-55-|
E|-7777777777777777----------------3333333333333333-77----77----33-------33-|

Chorus lead 1
e|-10-7------------------------------------------------2-0-----------0-----------|
B|------10-7----------------10-12----10-12----10---0-3-----3-20----3---3-320-2---|
G|-----------7h9p7--7--9/11-------11-------11----2-------------2-0-------------2-|
D|----------------9--------------------------------------------------------------|
A|-------------------------------------------------------------------------------|
E|-------------------------------------------------------------------------------|

Chorus lead 2
e|-10-7------------------------------------------------------------------------------0------|
B|------10-7-------------------10------12------10------12------10-----10------3---3-320-2---|
G|-----------7h9p7-7h9p7--11-11---11-11---11-11---11-11---11-11---11~~---11-0-------------2-|
D|----------------9-----9-------------------------------------------------------------------|
A|------------------------------------------------------------------------------------------|
E|------------------------------------------------------------------------------------------|

Chorus lead 3
e|-10-7-----------------------------------------------------------------2-0-----------0-----------|
B|------10-7-------------------10------12------10------12------12---0-3-----3-20----3---3-320-2---|
G|-----------7h9p7-7h9p7--11-11---11-11---11-11---11-11---11-11---2-------------2-0-------------2-|
D|----------------9-----9-------------------------------------------------------------------------|
A|------------------------------------------------------------------------------------------------|
E|------------------------------------------------------------------------------------------------|

Bridge (chords)
e|--------|
B|--------|
G|-11-----|
D|-11---7-|
A|-9----7-|
E|------5-|
        .
| /  slide up
| \  slide down
| h  hammer-on
| p  pull-off
| ~  vibrato
| +  harmonic
| x  Mute note
===============================================================================



+++ Ultimate Guitar Tabs Archive - your #1 source for tabs! +++
over 70,000 of guitar & bass tabs! Also lessons, news and forums!

--------------------------------------------------------------------------
             A FAVOR HOUSE ATLANTIC - Coheed and Cambria
--------------------------------------------------------------------------

Tabbed by: joecool71
Email: mattconnellan@yahoo.com

Tuning: Standard

Here it is, the ninth in my Coheed series, and probably the band's most popular
song. A difficult tab to figure out, too, due to the multiple lead parts,
especially in the bridge. But it's a great song, so have fun!

Intro
e|---------------------|
B|---------------------|
G|----------4-6--------|
D|-666666-6-----4------|
A|-444444-0--------7-6-|
E|---------------------|

Intro/ fill lead
e|-12-11----11----------------------------|
B|-------12----12--14---------------------|
G|---------------------13--11-9---11---13-|
D|----------------------------------------|
A|----------------------------------------|
E|----------------------------------------|

Verse (chords)
e|----------|
B|----------|
G|----------|
D|-2---4--6-|
A|-0---2--4-|
E|----------|

Verse lead
e|---------------9-------------------7----------|
B|-10-9---12-9-----9---12-9---10\------7----9---|
G|------9------9-----9------9-----/8-----/9---9-|
D|----------------------------------------------|
A|----------------------------------------------|
E|----------------------------------------------|

Prechorus
e|----------------------------------|
B|----------------------------------|
G|----------------------------------|
D|----------------------------------|
A|-77777777777777777777777777777777-|
E|-55555555555555555555555555555555-|
    .............  ................
Chorus
e|----------------------|--|----------------------------------|
B|----------------------|--|----------------------------------|
G|----------------------|--|----------------------------------|
D|----------------------|X3|----------------------------------|
A|-2-2--7-7--11-11--9-9-|--|-77777777777777777777777777777777-|
E|-0-0--5-5--9--9---7-7-|--|-55555555555555555555555555555555-|
                             ................................
Chorus lead
e|------------------------|--|-4---------|
B|-9-9--10-10--12-12--7-7-|--|-5---5---5-|
G|-9-9--9--9---9--9---9-9-|--|-----6-----|
D|------------------------|X3|-----------|
A|------------------------|--|-----------|
E|------------------------|--|-----------|

Fill
e|----------------------------|
B|----------------------------|
G|----------------------------|
D|-6-6-6--6-6-6--4-4-4--2-2-2-|
A|-4-4-4--0-0-0--0-0-0--0-0-0-|
E|----------------------------|

Bridge (chords)
e|-------------------------|
B|-------------------------|
G|-------------------------|
D|-------------------------|
A|-2---7--7-2---7--9-4---7-|
E|-0---5--4-0---5--7-2---5-|

Bridge lead 1
e|-----------------------------------------------------|
B|-5---5---5---5---77777777777777775555555---5---5---5-|
G|-4---6---4---6---66666666666666666666666---4---6---6-|
D|-----------------------------------------------------|
A|-----------------------------------------------------|
E|-----------------------------------------------------|

Bridge lead 2
e|----------------------------------|--|---------------------------------------|-->
B|-0-9-10-0-7-9-0-5-7-0-4-5-0-5-7-0-|--|-9-0-10-0-12-0-14-0-12-0-10-0-9-0-10-0-|-->
G|----------------------------------|--|---------------------------------------|-->
D|----------------------------------|X4|---------------------------------------|X2>
A|----------------------------------|--|---------------------------------------|-->
E|----------------------------------|--|---------------------------------------|-->

e|-----------------------------------------------------------------|
B|-9-9-5-0-7-9-0-5-7-0-4-5-0-5-7-0-9-9-5-0-7-9-5---7-0-4-5-0-0-5-7-|
G|-----------------------------------------------6-----------------|
D|-----------------------------------------------------------------|
A|-----------------------------------------------------------------|
E|-----------------------------------------------------------------|

Bridge lead 3 (Each note in the first half of this lead is struck w/ tremolo picking)
e|------------------------------------------------------------------------>
B|-10--9--7--9-4-5-7-10--9--7--5-4-5-7-10--9--7--9-4-5-7-5--4--5--7-5-4-5->
G|------------------------------------------------------------------------>
D|------------------------------------------------------------------------>
A|------------------------------------------------------------------------>
E|------------------------------------------------------------------------>

e|---------------------------------------|--|---------------------------------|
B|-9-0-10-0-12-0-14-0-12-0-10-0-9-0-10-0-|--|-9-0-7-9-0-0-7-9-0-5-7-0-4-0-5-0-|
G|---------------------------------------|--|---------------------------------|
D|---------------------------------------|X2|---------------------------------|
A|---------------------------------------|--|---------------------------------|
E|---------------------------------------|--|---------------------------------|

Outro
e|-12-11------|
B|-------12---|
G|------------|
D|------------|
A|----------2-|
E|----------0-|

| /  slide up
| \  slide down
| h  hammer-on
| p  pull-off
| ~  vibrato
| +  harmonic
| x  Mute note
===============================================================================



+++ Ultimate Guitar Tabs Archive - your #1 source for tabs! +++
over 70,000 of guitar & bass tabs! Also lessons, news and forums!

--------------------------------------------------------------------------
              THE LIGHT AND THE GLASS - Coheed and Cambria
--------------------------------------------------------------------------

Tabbed by: joecool71
Email: mattconnellan@yahoo.com

Tuning: Standard

The tenth and final(?) entry in my Coheed series, this one is a bigun'. I got pretty
much everything except the final solo, which is done with far to much distortion and
fade on the cd for me to fathom much of it. Also, there's a some other instruments
in this song other than guitar. Try to filter that out when listening for the riffs. Otherwise, enjoy!

Verse
e|-2-----2-----------------------------------------------------------------------5-----5----------->
B|---3-----3-------------------------------------------------0-------------0----------------------->
G|-----2-----2-----------------------------------------2-------2-------2-0-----0---0-----0--------->
D|-0-----0---------4-5-7-5-4p0-----7-----7-----7-----7---0-------0-2h4-------4-------0-----0-----0->
A|-------------4h5---------------5-----5-----5-----5-------2---------------------------------2-0--->
E|-----------------------------3-----3-----3-----3------------------------------------------------->

e|-------5-----5-----5-----5-----|
B|---------5-----5-----5-----5---|
G|-------------------------------|
D|-----0-----0-----0-----0-----0-|
A|-4-0---------------------------|
E|-------------------------------|

Prechorus (chords)
e|-------|
B|-------|
G|-------|
D|-7---5-|
A|-7---5-|
E|-5---3-|

Prechorus lead
e|-------0-----------0-----------0-----------------|
B|---2-----0-2---2-----0-2---3-------3-------------|
G|-----2-----------2-----------0---0---20----20----|
D|---------------------------------------420---420-|
A|-0-----------0-----------------------------------|
E|-------------------------3-----------------------|

Chorus (chords)
e|---------------|
B|---------------|
G|---------------|
D|-4---4---2-----|
A|-2---0---0---5-|
E|-------------3-|
   .   .   .   .
Bridge (chords)
e|-----------|
B|-----------|
G|-----------|
D|-9---7---5-|
A|-9---7---5-|
E|-7---5---3-|

Bridge lead
e|-------|
B|-------|
G|-11~~~-|
D|-------|
A|-------|
E|-------|

Phase II
e|--------------------------------------------------------|
B|--------------------------------------------------------|
G|--------------------------------------------------------|
D|-9--9---9--9-----------------10-10--10-10--10-10--10-10-|
A|-10-10--10-10--9--9---9--9---10-10--10-10--10-10--10-10-|
E|-12-12--12-12--10-10--10-10--8--8---8--8---8--8---8--8--|

Phase III (chords)
e|-------|
B|-------|
G|-----5-|
D|-7---5-|
A|-7---3-|
E|-5-----|
   .   .
Phase IV 
e|-2--2--2--2--2--2--2--2--3--3--3--3--3--3--3--3--|--|
B|--5--5--5--5--5--5--5--5--3--3--3--3--3--3--3--3-|--|
G|-------------------------------------------------|--|
D|-------------------------------------------------|X4|
A|-------------------------------------------------|--|
E|-------------------------------------------------|--|

Phase IV lead
e|---0-2---0-2---0-2----7\5-------10-------10------10-----10---|--|---0-2---0-2---0-2----7\5---->
B|-3-----3-----3-----3/5---7/8-10----10-10----10-8----8-7----7-|--|-3-----3-----3-----3/5---7/8->
G|-------------------------------------------------------------|--|----------------------------->
D|-------------------------------------------------------------|X3|----------------------------->
A|-------------------------------------------------------------|--|----------------------------->
E|-------------------------------------------------------------|--|----------------------------->

e|----10-------10------10-------------|
B|-10----10-10----10-8----8-----------|
G|------------------------------7p6---|
D|--------------------------7h9-----7-|
A|------------------------------------|
E|------------------------------------|

Phase V
e|-------------------------------------------------|--|
B|-------------------------------------------------|--|
G|-------------------------------------------------|--|
D|-------------------------------------4-4-4-4-4-4-|X4|
A|-4-4-0-4-5-0-4-4-0-4-5-0-4-4-0-4-5-0-2-2-2-2-2-2-|--|
E|-2-2---------2-2---------2-2---------------------|--|

Phase V lead 1 (comes in on 2nd time through)
e|----------------------------------------------|
B|----------------------------------------------|
G|----------------------------------------------|
D|-7-6-4---4/6---7-6-4--------------7-6-4---6---|
A|-------7-------------7-7h9--------------7---7-|
E|---------------------------9--7---------------|

Phase V lead 2 (comes in on 2nd time through)
e|---------------------------------------------------|
B|-10-9-7---7/9---10-9-7----------------10-9-7---9---|
G|--------9--------------9-9/11----------------9---9-|
D|------------------------------11--9----------------|
A|---------------------------------------------------|
E|---------------------------------------------------|

Phase VI (chords)
e|---------------------|
B|---------------------|
G|---------------------|
D|-2--3--5--3--2--3----|
A|-0--1--3--1--0--1--5-|
E|-------------------3-|
   .  .  .  .  .  .  .
Phase VII
e|-----------------------------------|
B|-----------------------------------|
G|-12-----11-----9----9-11-12--------|
D|-x--X8--x--X8--x-X8-x-x--x--10-----|
A|-10-----9------7----7-9--10-10-X24-|
E|----------------------------8------|

Phase VII lead
e|---12------12----12------12----12------------------------------0-8---7---10--8--7-|
B|-12--12-15b----12--12-15b----12--12-15-12-10-12-8-10-7-8-5-7-3--------------------|
G|----------------------------------------------------------------------------------|
D|----------------------------------------------------------------------------------|
A|----------------------------------------------------------------------------------|
E|----------------------------------------------------------------------------------|

Phase VII echo (chords)
e|---------------|
B|---------------|
G|-9---7---5---5-|
D|-9---7---5---5-|
A|-7---5---3---3-|
E|---------------|

LYRICS AND RIFF PLACEMENT

[VERSE] X4

| /  slide up
| \  slide down
| h  hammer-on
| p  pull-off
| ~  vibrato
| +  harmonic
| x  Mute note
===============================================================================
comments
print report bad tab
6 comments total. Showing first comments.
-1 reply
X-Factor wrote on July 12 2007, 10:51 pm

This is a ****in great tab!nice job to whoever tabbed it.

+1 reply
ethan1234 wrote on January 26 2008, 09:11 pm

omfg this is flipin awsome! best of the best i say! helped my alot i though id never learn this song so easly!the into
is the best i think!!rock on nice tab! :D

0 reply
ethan1234 wrote on February 3 2008, 06:00 pm

ok i takew that back i found better

I want to post or [tab]
guest
You may want to rate the tab now too:
select rating
Please do not post tabs as comments. Select "correction" instead!