Oops, an error
Loading. Please wait.

In Keeping Secrets Of Silent Earth Tab

27,225 views 12 this week
5 commentsread comments
1 2 3 4 5
excellent!
x 8
Autoscroll
+/-
esc
set tempo
stop
Contributor
Difficulty
intermediate
WARNING: You are trying to view
                                    content from Ultimate-Guitar.com
                                    in an unauthorized application,
                                    which is prohibited.

                                    Please use an official Ultimate
                                    Guitar Tabs application for iPhone,
                                    iPad or Android to access legitimate
                                    chords, guitar, bass, and drum tabs
                                    from Ultimate-Guitar.com database.

                                    Type "ultimate guitar tabs" in Apple
                                    App Store's or Android Market's
                                    search to find the application.
                      IN KEEPING SECRETS OF SILENT EARTH: 3
                        As recorded by Coheed and Cambria
           (From the 2003 Album IN KEEPING SECRETS OF SILENT EARTH: 3)

Words by Claudio Sanchez
Music by Coheed and Cambria

Gtr I (E A D G B E)- Claudio
Gtr II (E A D G B E)- Travis

 Intro
  Moderate Rock Q.=50
  (C#m)
 6/8
  Gtr I
  E.  E  S E.  E  S   E.  E S  E  E E
|-------------------|-----------------|
|-------------------|-----------------|
|-------------------|-----------------|
|-------------------|-----------------|
|----11-11----11-11-|----11---12-11---|
|-9--------9--------|-9-----9-------9-|


  (E)
  E.  E  S E.  E S    S  S  E  E  E.  S  S S
|------------------|--------------------------|
|------------------|--------------------------|
|------------------|--------------------------|
|------------------|--------------------------|
|----11-11----11---|-11-12-14-12-11--11-12-0--|
|-0--------0-----0-|--------------------------|


  (B)                                     (Asus2)
  S S S S +S  S E. E S   E. E S   E E E   S S S S +S  S E. E +S    H.
|----------------------|----------------|------------------------|-------|
|----------------------|----------------|------------------------|-------|
|----------------------|----------------|------------------------|-------|
|----------------------|----------------|------------------------|-9-----|
|-----9-9-(9)-9----9-9-|----9---/11-9-7-|-----7-7-(7)-7----7-(7)-|-------|
|-0h7-----------7--7---|-7----7---------|-0h5-----------5--------|-------|


  (C#m)
  Gtr I
   E.  E  S E.  E  S    E.  E S  E  E E
|--------------------|------------------|
|--------------------|------------------|
|--------------------|------------------|
|--------------------|------------------|
|-----11-11----11-11-|-----11---12-11---|
|--9--------9--------|--9-----9-------9-|
|
| Gtr II
|  <
|  ~~~~~~~~~~~~~~~~~~~~~~~~
|  H.                   Q.       E  E E
|--------------------|------------------|
|--------------------|------------------|
|-[9]----------------|-[8]-------6--8-9-|
|--------------------|------------------|
|--------------------|------------------|
|--------------------|------------------|


  (E)
   E.  E  S E.  E S    S   S  E  E  E.    S  S S
|-------------------|----------------------------|
|-------------------|----------------------------|
|-------------------|----------------------------|
|-------------------|----------------------------|
|-----11-11----11---|-11--12-14-12-11----11-12-0-|
|--0--------0-----0-|----------------------------|
|
|  ~~~~~~~~~~~~~~~~~~~~~~~
|  H.                  Q.           E  E     E
|-------------------|----------------------------|
|-------------------|----------------------------|
|-11----------------|-13-----------11--9-----8---|
|-------------------|----------------------------|
|-------------------|----------------------------|
|-------------------|----------------------------|


  (B)
  S S S S  +S  S E. E  S    E. E S   E E E
|------------------------|-----------------|
|------------------------|-----------------|
|------------------------|-----------------|
|------------------------|-----------------|
|-----9-9--(9)-9----9--9-|-----9---/11-9-7-|
|-0h7------------7--7----|--7----7---------|
|
| ~~~~~~~~~~~~~~~~~~~~~~~~~~~~~
| E.    E.       E. E.     +Q.       E E E
|------------------------|-----------------|
|------------------------|-----------------|
|-9-----8--------6--8----|-(8)-------6-8-9-|
|------------------------|-----------------|
|------------------------|-----------------|
|------------------------|-----------------|


  (Asus2)
   S S S S +S  S E. E +S     H.
|-------------------------|---------------||
|-------------------------|---------------||
|-------------------------|---------------||
|-------------------------|--9------------||
|------7-7-(7)-7----7-(7)-|---------------||
|--0h5-----------5--------|---------------||
|
|  ~~~~~~~~~~~~~~~~~~~~~~~~~~~~~~~~~~~~
|  H.                        Q.    +Q.
|-------------------------|---------------||
|-------------------------|---------------||
|-11----------------------|-13----(13)----||
|-------------------------|---------------||
|-------------------------|---------------||
|-------------------------|---------------||


 Breakdown
  Faster Q.=52
  C#5
  Gtr I
   S  S  S  S  S  S  S  S  S  S  S  S    S  S  S  S  S  S  S  S  S  S  S  S
|-------------------------------------|-------------------------------------|
|-------------------------------------|-------------------------------------|
|-------------------------------------|-------------------------------------|
|-------------------------------------|-------------------------------------|
|-11-11-11-11-11-11-11-11-11-11-11-11-|-11-11-11-11-11-11-11-11-11-11-11-11-|
|--9--9--9--9--9--9--9--9--9--9--9--9-|--9--9--9--9--9--9--9--9--9--9--9--9-|
|
| Gtr II
|  S  S  S  S  S  S  S  S  S  S  S  S    S  S  S  S  S  S  E     E     E
|-------------------------------------|-------------------------------------|
|-------------------------------------|-------------------------------------|
|--9--9--9--8--8--8--9--9--9--8--8--8-|--9--9--9--8--8--8-11-----9-----6----|
|--6--6--6--6--6--6--6--6--6--6--6--6-|--6--6--6--6--6--6--6-----6-----6----|
|-------------------------------------|-------------------------------------|
|-------------------------------------|-------------------------------------|


  E
        PM------|        PM------|          PM------|      PM------|
   E    S  S  S  S  E    S  S  S  S    E    S  S  S  S  E  S  S  S  S
|-----------------------------------|------------------------------------|
|-----------------------------------|------------------------------------|
|-----------------------------------|------------------------------------|
|-----------------------------------|------------------------------------|
|-11---11-11-11-11-11---11-11-11-11-|-11---11-11-11-11-11-11-11-11-11----|
|--0----0--0--0--0--0----0--0--0--0-|--0----0--0--0--0--0--0--0--0--0----|
|
|  S S  S  S  S  S  S S  S  S  S  S    S S  S  S  S  S  E  E     E
|-----------------------------------|------------------------------------|
|-----------------------------------|------------------------------------|
|--9-9--9--8--8--8--9-9--9--8--8--8-|--9-9--9--8--8--8-11--9-----6-------|
|--6-6--6--6--6--6--6-6--6--6--6--6-|--6-6--6--6--6--6--6--6-----6-------|
|-----------------------------------|------------------------------------|
|-----------------------------------|------------------------------------|


  B6
  S S S S S S S S S S S S   S S S S S S S S S S S S
|-------------------------|-------------------------|
|-------------------------|-------------------------|
|-------------------------|-------------------------|
|-------------------------|-------------------------|
|-9-9-9-9-9-9-9-9-9-9-9-9-|-9-9-9-9-9-9-9-9-9-9-9-9-|
|-7-7-7-7-7-7-7-7-7-7-7-7-|-7-7-7-7-7-7-7-7-7-7-7-7-|
|
| S S S S S S E   E   E     E   E   E   E   E   E
|-------------------------|-------------------------|
|-------------------------|-------------------------|
|-------------------------|-------------------------|
|-------------6-----------|-9-----------------------|
|-------6-7-9-----9---7---|-----7---6---7---6-------|
|-6-7-9-------------------|---------------------7---|


  A5
    PM|   PM|   PM|   PM|     PM|   PM|   PM|   PM|
  S S S S S S S S S S S S   S S S S S S S S S S S S
|-------------------------|---------------------------||
|-------------------------|---------------------------||
|-------------------------|---------------------------||
|-7-----7-----7-----7-----|-7-----7-----7-----7-------||
|-7-7-7-7-7-7-7-7-7-7-7-7-|-7-7-7-7-7-7-7-7-7-7-7-7---||
|-5-5-5-5-5-5-5-5-5-5-5-5-|-5-5-5-5-5-5-5-5-5-5-5-5---||
|
| PM|                       PM|
| S S S S S S S S S S S S   S S S S S S S S S S S S
|-----7-----7-----7-----7-|-----4-----4-----4-----4---||
|-------5-----5-----5-----|-------5-----5-----5-------||
|-6-6-----6-----6-----6---|-6-6-----6-----6-----6-----||
|-------------------------|---------------------------||
|-------------------------|---------------------------||
|-------------------------|---------------------------||


 Pre-Verse
  Faster Q.=55
  N.C.
  Gtr I
  PM--|                 PM----------|
  S e S S S e e  S  S   S e S S S S e   S  S  S
|---------------------|-------------------------|
|---------------------|-------------------------|
|---------------------|-----------------8s=9s=8-|
|---------6-----------|-9-9-9-9-9-7-7---x--x--x-|
|-------7---7-6-[6]h7-|-9-9-9-9-9-7-7---6s=7s=6-|
|-9-9-9---------------|-7-7-7-7-7-5-5-----------|
|
| Gtr II
| PM--|                 PM----------|
| S e S S S e e  S  S   S e S S S S e   S  S  S
|---------------------|-------------------------|
|---------------------|-------------------------|
|---------------------|-----------------8s=9s=8-|
|---------6-----------|-9-9-9-9-9-7-7---x--x--x-|
|-------7---7-6--6h=7-|-9-9-9-9-9-7-7---6s=7s=6-|
|-9-9-9---------------|-7-7-7-7-7-5-5-----------|

  PM--|               PM----------|
  S e S S S e e S S   S e S S S S e   S S S
|-------------------|-----------------------||
|-------------------|-----------------------||
|-------------------|-----------------8s9s8-||
|---------6---------|-9-9-9-9-9-7-7---x-x-x-||
|-------7---7-6-6h7-|-9-9-9-9-9-7-7---6s7s6-||
|-9-9-9-------------|-7-7-7-7-7-5-5---------||
|
| PM--|               PM----------|
| S e S S S e e S S   S e S S S S e   S S S
|-------------------|-----------------------||
|-------------------|-----------------------||
|-------------------|-----------------8s9s8-||
|---------6---------|-9-9-9-9-9-7-7---x-x-x-||
|-------7---7-6-6h7-|-9-9-9-9-9-7-7---6s7s6-||
|-9-9-9-------------|-7-7-7-7-7-5-5---------||

   Verse
                       1.,2.,3.                  4.
    $
    N.C.
    PM--|               PM----------|             PM--------------------|
    S e S S S e e S S   S e S S S S e   S S S  4x S S S S S S S S S S S S
||--------------------|------------------------||--------------------------|
||o-------------------|-----------------------o||--------------------------|
||--------------------|-----------------8s9s8--||--------------------------|
||----------6---------|-9-9-9-9-9-7-7---x-x-x--||-9-9-9-9-9-9-7-7-7-7-7-7--|
||o-------7---7-6-6h7-|-9-9-9-9-9-7-7---6s7s6-o||-9-9-9-9-9-9-7-7-7-7-7-7--|
||--9-9-9-------------|-7-7-7-7-7-5-5----------||-7-7-7-7-7-7-5-5-5-5-5-5--|
|
|   PM--|               PM----------|             PM--------------------|
|   S e S S S e e S S   S e S S S S e   S S S  4x S S S S S S S S S S S S
||--------------------|------------------------||--------------------------|
||o-------------------|-----------------------o||--------------------------|
||--------------------|-----------------8s9s8--||--------------------------|
||----------6---------|-----------------x-x-x--||-9-9-9-9-9-9-7-7-7-7-7-7--|
||o-------7---7-6-6h7-|-----------------6s7s6-o||-9-9-9-9-9-9-7-7-7-7-7-7--|
||--9-9-9-------------|-7-7-7-7-7-5-5----------||-7-7-7-7-7-7-5-5-5-5-5-5--|

                       1.                        2.
    N.C.
    PM--|               PM----------|             PM---------------------|
    S e S S S e e S S   S e S S S S e   S S S     S  S S S S S S S S S S S
||--------------------|------------------------||---------------------------||
||o-------------------|-----------------------o||---------------------------||
||--------------------|-----------------8s9s8--||---------------------------||
||----------6---------|-----------------x-x-x--||-9--9-9-9-9-9-7-7-7-7-7-7--||
||o-------7---7-6-6h7-|-----------------6s7s6-o||-9--9-9-9-9-9-7-7-7-7-7-7--||
||--9-9-9-------------|-7-7-7-7-7-5-5----------||-7--7-7-7-7-7-5-5-5-5-5-5--||
|
|   PM--|               PM----------|             PM---------------------|
|   S e S S S e e S S   S e S S S S e   S S S     S  S S S S S S S S S S S
||--------------------|------------------------||---------------------------||
||o-------------------|-----------------------o||---------------------------||
||--------------------|-----------------8s9s8--||---------------------------||
||----------6---------|-----------------x-x-x--||-9--9-9-9-9-9-7-7-7-7-7-7--||
||o-------7---7-6-6h7-|-----------------6s7s6-o||-9--9-9-9-9-9-7-7-7-7-7-7--||
||--9-9-9-------------|-7-7-7-7-7-5-5----------||-7--7-7-7-7-7-5-5-5-5-5-5--||


   Pre-Chorus
                             1.,2.,3.            4.
    F#5                       C#G#A5B5N.C.        G#5         A5
    Gtrs I,II
       PM     PM    PM    PM          PM-----|
    S S S S S S S S S S S S   E E E E S S S S  4x S S S S S S S S S S S S
||--------------------------|------------------||--------------------------||
||o-------------------------|-----------------o||--------------------------||
||--------------------------|------------------||--------------------------||
||--------------------------|-6----------------||--------------------------||
||o-4-4---4-4---4-4---4-4---|-4-6-7-9---------o||-6-6-6-6-6-6-7-7-7-7-7-7--||
||--2-2-0-2-2-0-2-2-0-2-2-0-|---4-5-7-4-5-4-2--||-4-4-4-4-4-4-5-5-5-5-5-5--||


   Chorus
    C#5
    Gtr I
     S  S  S  S  S  S  S  S  S  S  S  S    S  S  S  S  S  S  S  S  S  S  S  S
||--------------------------------------|-------------------------------------|
||o-------------------------------------|-------------------------------------|
||--------------------------------------|-------------------------------------|
||--------------------------------------|-------------------------------------|
||o-11-11-11-11-11-11-11-11-11-11-11-11-|-11-11-11-11-11-11-11-11-11-11-11-11-|
||---9--9--9--9--9--9--9--9--9--9--9--9-|--9--9--9--9--9--9--9--9--9--9--9--9-|
|
|   Gtr II
|    S  S  S  S  S  S  S  S  S  S  S  S    S  S  S  S  S  S  S  S  S  S  S  S
||--------------------------------------|-------------------------------------|
||o-------------------------------------|-------------------------------------|
||--------------------------------------|-------------------------------------|
||--------------------------------------|-------------------------------------|
||o-11-11-11-11-11-11-11-11-11-11-11-11-|-11-11-11-11-11-11-11-11-11-11-11-11-|
||---9--9--9--9--9--9--9--9--9--9--9--9-|--9--9--9--9--9--9--9--9--9--9--9--9-|


  E
       PM-----------|            PM------|            PM------|
   E   S    S    S    S   E      S  S  S  S    E      S  S  S  S  E      S  S  S  S
|-------------------------------------------|-----------------------------------------|
|-------------------------------------------|-----------------------------------------|
|-------------------------------------------|-----------------------------------------|
|-------------------------------------------|-----------------------------------------|
|-11--11---11---11---11--11-----11-11-11-11-|-11-----11-11-11-11-11-----11-11-11-11---|
|--0---0----0----0----0---0------0--0--0--0-|--0------0--0--0--0--0------0--0--0--0---|
|
|      PM-----------|            PM------|            PM------|
|  E   S    S    S    S   S  S   S  S  S  S    S  S   S  S  S  S  S  S   S  S  S  S
|-------------------------------------------|-----------------------------------------|
|-------------------------------------------|-----------------------------------------|
|-13---------------------13-11--------------|-11--9---------------9-11----------------|
|--x----------------------x--x--------------|--x--x---------------x--x----------------|
|-11-(11)-(11)-(11)-(11)-11s=9--------------|--9s=7---------------7s=9---9--9--9--9---|
|--0---0----0----0----0---0-(0)--0--0--0--0-|--0-(0)--0--0--0--0--0-(0)--0--0--0--0---|


  B6
  Gtrs I, II
  S S S S S S S S S S S S   S S S S S S S S S S S S
|-------------------------|-------------------------|
|-------------------------|-------------------------|
|-------------------------|-------------------------|
|-------------------------|-------------------------|
|-9-9-9-9-9-9-9-9-9-9-9-9-|-9-9-9-9-9-9-9-9-9-9-9-9-|
|-7-7-7-7-7-7-7-7-7-7-7-7-|-7-7-7-7-7-7-7-7-7-7-7-7-|


                                           To Coda
  A5
    PM|   PM|   PM|   PM|     PM|   PM|   PM|   PM|
  S S S S S S S S S S S S   S S S S S S S S S S S S
|-------------------------|----------------------------||
|-------------------------|---------------------------o||
|-------------------------|----------------------------||
|-7-----7-----7-----7-----|-7-----7-----7-----7--------||
|-7-7-7-7-7-7-7-7-7-7-7-7-|-7-7-7-7-7-7-7-7-7-7-7-7---o||
|-5-5-5-5-5-5-5-5-5-5-5-5-|-5-5-5-5-5-5-5-5-5-5-5-5----||


   Verse
                                D.S. al Coda
    N.C.
    PM--|               PM----------|
    S e S S S e e S S   S e S S S S e   S S S
||--------------------|------------------------||
||o-------------------|-----------------------o||
||--------------------|-----------------8s9s8--||
||----------6---------|-9-9-9-9-9-7-7---x-x-x--||
||o-------7---7-6-6h7-|-9-9-9-9-9-7-7---6s7s6-o||
||--9-9-9-------------|-7-7-7-7-7-5-5----------||
|
|   Gtr II
|   PM--|               PM----------|
|   S e S S S e e S S   S e S S S S e   S S S
||--------------------|------------------------||
||o-------------------|-----------------------o||
||--------------------|------------------------||
||----------6---------|-9-9-9-9-9-7-7----------||
||o-------7---7-6-6h7-|-9-9-9-9-9-7-7---6s7s6-o||
||--9-9-9-------------|-7-7-7-7-7-5-5----------||


   Interlude
    &
    N.C.
    Gtr I
    PM--|     ~~     PM--|      ~~~
    S e S S S Q.     S e S S S  Q.
||-----------------|-----------------|
||o----------------|-----------------|
||-----------------|-----------------|
||-----------------|-----------------|
||o-2-2---2h3-2----|-2-2---2-3-/5----|
||--0-0-0----------|-0-0-0-----------|
|
|   Gtr II
|   PM--|     ~~     PM--|      ~~~
|   S e S S S Q.     S e S S S  Q.
||-----------------|-----------------|
||o----------------|-----------------|
||-----------------|-----------------|
||-----------------|-----------------|
||o-2-2---2h3-2----|-2-2---2h3-/5----|
||--0-0-0----------|-0-0-0-----------|


  N.C.
  PM--|     ~~
  S e S S S Q.     S S S S S S S S S S S S
|----------------|--------------------------||
|----------------|-------------------------o||
|----------------|--------------------------||
|----------------|-------2-5-2-5-4-2--------||
|-2-2---2h3-2----|-0-2-3-------------5-3-2-o||
|-0-0-0----------|--------------------------||
|
| PM--|     ~~
| S e S S S Q.     S S S S S S S S S S S S
|----------------|--------------------------||
|----------------|-------5-8-5-8-7-5-------o||
|----------------|---4-5-------------7-5-4--||
|----------------|-7------------------------||
|-2-2---2h3-2----|-------------------------o||
|-0-0-0----------|--------------------------||


  N.C.
  PM--|      ~~~    PM--|      ~~~
  S e S S S  Q.     S e S S S  Q.
|-----------------|-----------------|
|-----------------|-----------------|
|-----------------|-----------------|
|-----------------|-----------------|
|-2-2---2h3--2----|-2-2---2h3-/5----|
|-0-0-0-----------|-0-0-0-----------|
|
| PM--|      ~~~    PM--|      ~~~
| S e S S S  Q.     S e S S S  Q.
|-----------------|-----------------|
|-----------------|-----------------|
|-----------------|-----------------|
|-----------------|-----------------|
|-2-2---2h3-/5----|-2-2---2h3-/5----|
|-0-0-0-----------|-0-0-0-----------|


  N.C.
  PM--|     ~~                                ~~~~~~~~~~~~~~
  S e S S S Q.     S S S S S S S S S S S S   +H.        +H.
|----------------|-------------------------|----------|--------||
|----------------|-------------------------|----------|--------||
|----------------|-------------------------|----------|--------||
|----------------|-------2-5-2-5-4-2-------|----------|--------||
|-2-2---2h3-2----|-0-2-3-------------5-3-2-|-(2)------|-(2)----||
|-0-0-0----------|-------------------------|----------|--------||
|
| PM--|     ~~                                ~~~~~~~~~~~~~~
| S e S S S Q.     S S S S S S S S S S S S   +H.        +H.
|----------------|-------------------------|----------|--------||
|----------------|-------5-8-5-8-7-5-------|----------|--------||
|----------------|---4-5-------------7-5-4-|-(4)------|-(4)----||
|----------------|-7-----------------------|----------|--------||
|-2-2---2h3-2----|-------------------------|----------|--------||
|-0-0-0----------|-------------------------|----------|--------||


 Bridge
  Slower Q.=50
  N.C.
  Gtr I
   E  E  E  E  E  E    E  E  E  E  E  E    E  E  E  E  E  E
|-------------------|-------------------|-------------------|
|-------------------|-------------------|-------------------|
|-------------------|-------------------|-------------------|
|----------12-------|----------12-------|----------12-------|
|----14-15----14-15-|----14-15----14-15-|----14-15----14-15-|
|-12----------------|-12----------------|-12----------------|


  N.C.
  Gtr I
   E   E  E  E  E  E    E     E       E      E   E  S S
|--------------------|----------------------------------||
|--------------------|----------------------------------||
|-----------12-------|----------------------------------||
|-----14-15----15-14-|-------14-------------12--14-12p0-||
|-12-----------------|-15------------15-----------------||
|--------------------|----------------------------------||
|
|                      Gtr II
|  H.                   S  S  S   S   S   S  E   Q
|--------------------|-10-10-10--10--10--10-10\---------||
|--------------------|--8--8--8---8---8---8--8\---------||
|--------------------|----------------------------------||
|--------------------|----------------------------------||
|--------------------|----------------------------------||
|--------------------|----------------------------------||

   Interlude
    N.C.
     E     E     E    E    E     E
||-----------------------------------|
||o----------------------------------|
||-----------------------------------|
||-------------------12--------------|
||o-------14----15--------14----15---|
||--12-------------------------------|
|
|    PM-------------------------------
|    S  S  S  S  S S  S S  S  S  S S
||--10-------10------12------10------|
||o-----8--8-----8-8----8--8-----8-8-|
||-----------------------------------|
||-----------------------------------|
||o----------------------------------|
||-----------------------------------|

   E     E     E    E    E    E      E     E     E    E    E     E
|---------------------------------|----------------------------------|
|---------------------------------|----------------------------------|
|---------------------------------|----------------------------------|
|------------------12-------------|------------------12--------------|
|-------14----15--------14---15---|-------14----15--------14----15---|
|-12------------------------------|-12-------------------------------|
|
|----------------|            PM-----------------------------------|
|  S  S  S  S  S S  S S  S S  S S    S  S  S  S  S S  S S  S  S  S S
|-10-------10-------8p7----7------|-10-------10------12------10------|
|-----8--8-----8-8-------8----8-8-|-----8--8-----8-8----8--8-----8-8-|
|---------------------------------|----------------------------------|
|---------------------------------|----------------------------------|
|---------------------------------|----------------------------------|
|---------------------------------|----------------------------------|


  N.C.
   E     E     E    E    E     E
|----------------------------------|
|----------------------------------|
|------------------12--------------|
|-------14----15--------15----14---|
|-12-------------------------------|
|----------------------------------|
|
|  S  S  S  S  S S  S S  S  S  S S
|--8p=7----10p=7---12p7----10p=7---|
|--------8-------8-------8-------8-|
|----------------------------------|
|----------------------------------|
|----------------------------------|
|----------------------------------|

 1.,2.                                3.
   E     E       E      E   E  S S  3x  E     E       E      E   E  E
|-----------------------------------||---------------------------------||
|----------------------------------o||---------------------------------||
|-----------------------------------||---------------------------------||
|-------14-------------12--14-12p0--||-------14-------------12--14-12\-||
|-15------------15-----------------o||-15------------15----------------||
|-----------------------------------||---------------------------------||
|
|  S  S  S   S   S   S  E   Q       3x  S  S  S   S   S   S  E   Q
|-10-10-10--10--10--10-10\----------||-10-10-10--10--10--10-10\--------||
|--8--8--8---8---8---8--8\---------o||--8--8--8---8---8---8--8\--------||
|-----------------------------------||---------------------------------||
|-----------------------------------||---------------------------------||
|----------------------------------o||---------------------------------||
|-----------------------------------||---------------------------------||


   Guitar Break
    (Fsus2)             (G5)
    Gtr I
    E E e S S S S S S   E E E E E  E   4x
||--------------------|----------------||
||o-------------------|---------------o||
||--------------------|----------------||
||------5-5-3-2---2---|-------5--------||
||o---3---------5---3-|---5-5---5-/7\-o||
||--1-----------------|-3--------------||


    Slower Q.=48
    Amadd2     Am     F/A       Fmaj7
    Gtr I
     H.          Q.     Q.       H.        +H.
||-----------|----------------|-^0-------|-(0)--------|
||o-^0-------|----------------|-^1-------|-(1)--------|
||--^5-------|-^-9----^14-----|-^2-------|-(2)--------|
||--^7-------|-^10----^15-----|-^3-------|-(3)--------|
||o-^0-------|-^12----^12-----|----------|------------|
||-----------|----------------|----------|------------|
|
|   Gtr II
|    H.          Q.     Q   E    H.         Q.   Q  E
||-----------|----------------|----------|------------|
||o----------|----------------|----------|------------|
||-----------|----------------|----------|------------|
||-----------|----------------|----------|------------|
||o--7-------|---8------7---5-|--3-------|--5----3--2-|
||---5-------|----------------|--1-------|------------|

  Amadd2     Am     F/A       Fmaj7
   H.          Q.     Q.       H.             +H.
|----------|----------------|-^0------------|-(0)------------------||
|-^0-------|----------------|-^1------------|-(1)-----------------o||
|-^5-------|-^-9----^14-----|-^2------------|-(2)------------------||
|-^7-------|-^10----^15-----|-^3------------|-(3)------------------||
|-^0-------|-^12----^12-----|---------------|---------------------o||
|----------|----------------|---------------|----------------------||
|
|  H.          Q.     Q   E    H.              Q.           Q   E
|----------|----------------|---------------|----------------------||
|----------|----------------|---------------|---------------------o||
|----------|----------------|---------------|----------------------||
|----------|----------------|---------------|----------------------||
|--7-------|---8------7---5-|--3------------|--5------------3---2-o||
|--5-------|----------------|--1------------|----------------------||

  Amadd2     Am     F/A      Fmaj7
  Gtr I
                                              |-3--|     |-3-|
   H.          Q.     Q.      Q.   S E S E    S  S S E E S S S E E
|----------|---------------|-^0----3p0-----|-----------------------|
|-^0-------|---------------|-^1--------3p1-|--0h=1p0-----0h1p0-----|
|-^5-------|-^-9----^14----|-^2------------|---------2---------2---|
|-^7-------|-^10----^15----|-^3------------|-----------3---------3-|
|-^0-------|-^12----^12----|---------------|-----------------------|
|----------|---------------|---------------|-----------------------|
|
| Gtr II
|  H.         +H.            +H.             +H.
|----------|---------------|---------------|-----------------------|
|----------|---------------|---------------|-----------------------|
|----------|---------------|---------------|-----------------------|
|----------|---------------|---------------|-----------------------|
|--7-------|--(7)----------|-(7)-----------|-(7)-------------------|
|--5-------|--(5)----------|-(5)-----------|-(5)-------------------|


  Amadd2
   H.        +H.        +H.        +H.
|----------|----------|----------|--------||
|-^0-------|-(0)------|-(0)------|-(0)----||
|-^5-------|-(5)------|-(5)------|-(5)----||
|-^7-------|-(7)------|-(7)------|-(7)----||
|-^0-------|-(0)------|-(0)------|-(0)----||
|----------|----------|----------|--------||
|
|  H.        +H.        +H.        +H.
|----------|----------|----------|--------||
|----------|----------|----------|--------||
|----------|----------|----------|--------||
|----------|----------|----------|--------||
|--7-------|-(7)------|-(7)------|-(7)----||
|--5-------|-(5)------|-(5)------|-(5)----||


 Re-Intro
  Faster Q.=50
  (C#m)
  Gtr I
  E.  E  S E.  E  S   E.  E S  E  E E
|-------------------|-----------------|
|-------------------|-----------------|
|-------------------|-----------------|
|-------------------|-----------------|
|----11-11----11-11-|----11---12-11---|
|-9--------9--------|-9-----9-------9-|
|
| H.                  H.
|-------------------|-----------------|
|-------------------|-----------------|
|-------------------|-----------------|
|-------------------|-----------------|
|-------------------|-----------------|
|-------------------|-----------------|


  (E)
   E.  E  S E.  E S    S   S  E  E  E.    S  S S
|-------------------|----------------------------|
|-------------------|----------------------------|
|-------------------|----------------------------|
|-------------------|----------------------------|
|-----11-11----11---|-11--12-14-12-11----11-12-0-|
|--0--------0-----0-|----------------------------|
|
| Gtr II
|  <
|  ~~~~~~~~~~~~~~~~~~~~~~~
|  H.                  Q.           E  E     E
|-------------------|----------------------------|
|-------------------|----------------------------|
|-11----------------|-13-----------11--9-----8---|
|-------------------|----------------------------|
|-------------------|----------------------------|
|-------------------|----------------------------|


  (B)
  Gtr I
  S S S S  +S  S E. E  S    E. E S   E E E
|------------------------|-----------------|
|------------------------|-----------------|
|------------------------|-----------------|
|------------------------|-----------------|
|-----9-9--(9)-9----9--9-|-----9---/11-9-7-|
|-0h7------------7--7----|--7----7---------|
|
| ~~~~~~~~~~~~~~~~~~~~~~~~~~~~~
| E.    E.       E. E.     +Q.       E E E
|------------------------|-----------------|
|------------------------|-----------------|
|-9-----8--------6--8----|-(8)-------6-8-9-|
|------------------------|-----------------|
|------------------------|-----------------|
|------------------------|-----------------|


  A5
   S S S S +S  S E.     E   +S     H.
|-------------------------------|---------------------------||
|-------------------------------|---------------------------||
|-------------------------------|---------------------------||
|-------------------------------|--9------------------------||
|------7-7-(7)-7--------7---(7)-|---------------------------||
|--0h5-----------5--------------|---------------------------||
|
|  ~~~~~~~~~~~~~~~~~~~~~~~~~~~~~~~~~~~
|  H.                              H.
|-------------------------------|---------------------------||
|-------------------------------|---------------------------||
|-11----------------------------|-13------------------------||
|-------------------------------|---------------------------||
|-------------------------------|---------------------------||
|-------------------------------|---------------------------||
|
| Backing Gtr
|  PM-----------------------------------------|
|  S S S S  S  S S  S S S S  S     S  S S S S S S S S S S S
|-------------------------------|---------------------------||
|-------------------------------|---------------------------||
|-------------------------------|---------------------------||
|-------------------------------|---------------------------||
|--7-7-7-7--7--7-7--7-7-7-7--7--|--7--7-7-7-7-7-7-7-7-7-7-7-||
|--5-5-5-5--5--5-5--5-5-5-5--5--|--5--5-5-5-5-5-5-5-5-5-5-5-||


 Breakdown
  Faster Q.=52
  C#5
  Gtr I
   S  S  S  S  S  S  S  S  S  S  S  S    S  S  S  S  S  S  S  S  S  S  S  S
|-------------------------------------|-------------------------------------|
|-------------------------------------|-------------------------------------|
|-------------------------------------|-------------------------------------|
|-------------------------------------|-------------------------------------|
|-11-11-11-11-11-11-11-11-11-11-11-11-|-11-11-11-11-11-11-11-11-11-11-11-11-|
|--9--9--9--9--9--9--9--9--9--9--9--9-|--9--9--9--9--9--9--9--9--9--9--9--9-|
|
| Gtr II
|  S  S  S  S  S  S  S  S  S  S  S  S    S  S  S  S  S  S  E     E     E
|-------------------------------------|-------------------------------------|
|-------------------------------------|-------------------------------------|
|--9--9--9--8--8--8--9--9--9--8--8--8-|--9--9--9--8--8--8-11-----9-----6----|
|--6--6--6--6--6--6--6--6--6--6--6--6-|--6--6--6--6--6--6--6-----6-----6----|
|-------------------------------------|-------------------------------------|
|-------------------------------------|-------------------------------------|


  E
        PM------|        PM------|          PM------|      PM------|
   E    S  S  S  S  E    S  S  S  S    E    S  S  S  S  E  S  S  S  S
|-----------------------------------|------------------------------------|
|-----------------------------------|------------------------------------|
|-----------------------------------|------------------------------------|
|-----------------------------------|------------------------------------|
|-11---11-11-11-11-11---11-11-11-11-|-11---11-11-11-11-11-11-11-11-11----|
|--0----0--0--0--0--0----0--0--0--0-|--0----0--0--0--0--0--0--0--0--0----|
|
|  S S  S  S  S  S  S S  S  S  S  S    S S  S  S  S  S  E  E     E
|-----------------------------------|------------------------------------|
|-----------------------------------|------------------------------------|
|--9-9--9--8--8--8--9-9--9--8--8--8-|--9-9--9--8--8--8-11--9-----6-------|
|--6-6--6--6--6--6--6-6--6--6--6--6-|--6-6--6--6--6--6--6--6-----6-------|
|-----------------------------------|------------------------------------|
|-----------------------------------|------------------------------------|


  B6
  S S S S S S S S S S S S   S S S S S S S S S S S S
|-------------------------|-------------------------|
|-------------------------|-------------------------|
|-------------------------|-------------------------|
|-------------------------|-------------------------|
|-9-9-9-9-9-9-9-9-9-9-9-9-|-9-9-9-9-9-9-9-9-9-9-9-9-|
|-7-7-7-7-7-7-7-7-7-7-7-7-|-7-7-7-7-7-7-7-7-7-7-7-7-|
|
| S S S S S S E   E   E     E   E   E   E   E   E
|-------------------------|-------------------------|
|-------------------------|-------------------------|
|-------------------------|-------------------------|
|-------------6-----------|-9-----------------------|
|-------6-7-9-----9---7---|-----7---6---7---6-------|
|-6-7-9-------------------|---------------------7---|


  A5
    PM|   PM|   PM|   PM|     PM|   PM|   PM|   PM|
  S S S S S S S S S S S S   S S S S S S S S S S S S
|-------------------------|---------------------------|
|-------------------------|---------------------------|
|-------------------------|---------------------------|
|-7-----7-----7-----7-----|-7-----7-----7-----7-------|
|-7-7-7-7-7-7-7-7-7-7-7-7-|-7-7-7-7-7-7-7-7-7-7-7-7---|
|-5-5-5-5-5-5-5-5-5-5-5-5-|-5-5-5-5-5-5-5-5-5-5-5-5---|
|
| PM|                       PM|
| S S S S S S S S S S S S   S S S S S S S S S S S S
|-----7-----7-----7-----7-|-----4-----4-----4-----4---|
|-------5-----5-----5-----|-------5-----5-----5-------|
|-6-6-----6-----6-----6---|-6-6-----6-----6-----6-----|
|-------------------------|---------------------------|
|-------------------------|---------------------------|
|-------------------------|---------------------------|


   Out-Chorus
    C#5
    Gtr I
     S   S  S  S  S  S  S   S  S  S  S  S    S   S  S  S  S  S  S  S  S  S  S  S
||----------------------------------------|--------------------------------------|
||o---------------------------------------|--------------------------------------|
||----------------------------------------|--------------------------------------|
||----------------------------------------|--------------------------------------|
||o-11--11-11-11-11-11-11--11-11-11-11-11-|-11--11-11-11-11-11-11-11-11-11-11-11-|
||---9---9--9--9--9--9--9---9--9--9--9--9-|--9---9--9--9--9--9--9--9--9--9--9--9-|
|
|   Gtr II
|    S   S  S  S  S  S  S   S  S  S  S  S    S   S  S  S  S  S  S  S  S  S  S  S
||----------------------------------------|--------------------------------------|
||o---------------------------------------|--------------------------------------|
||----------------------------------------|--------------------------------------|
||----------------------------------------|--------------------------------------|
||o-11--11-11-11-11-11-11--11-11-11-11-11-|-11--11-11-11-11-11-11-11-11-11-11-11-|
||---9---9--9--9--9--9--9---9--9--9--9--9-|--9---9--9--9--9--9--9--9--9--9--9--9-|

        PM-----------|            PM------|              PM------|

   E    S    S    S    S   E      S  S  S  S     E       S  S  S  S  E      S
|--------------------------------------------|-------------------------------------------|
|--------------------------------------------|-------------------------------------------|
|--------------------------------------------|-------------------------------------------|
|--------------------------------------------|-------------------------------------------|
|-11---11---11---11---11--11-----11-11-11-11-|--11------11-11-11-11-11-----11-11-11-11---|
|--0----0----0----0----0---0------0--0--0--0-|---0-------0--0--0--0--0------0--0--0--0---|
|
|       PM-----------|            PM------|              PM------|
|  E    S    S    S    S   S  S   S  S  S  S     S   S   S  S  S  S  S  S   S  S  S  S
|--------------------------------------------|-------------------------------------------|
|--------------------------------------------|-------------------------------------------|
|--------------------------------------------|-------------------------------------------|
|--------------------------------------------|-------------------------------------------|
|-11--(11)-(11)-(11)-(11)-11s=9--------------|---9s==7---------------7s=9---9--9--9--9---|
|--0----0----0----0----0---0-(0)--0--0--0--0-|---0--(0)--0--0--0--0--0-(0)--0--0--0--0---|


  B6
  Gtrs I, II
  S  S S S S S S S S S S S    S  S S S S S S S S S S S
|--------------------------|---------------------------|
|--------------------------|---------------------------|
|--------------------------|---------------------------|
|--------------------------|---------------------------|
|-9--9-9-9-9-9-9-9-9-9-9-9-|--9--9-9-9-9-9-9-9-9-9-9-9-|
|-7--7-7-7-7-7-7-7-7-7-7-7-|--7--7-7-7-7-7-7-7-7-7-7-7-|

  A5
     PM|   PM|   PM|   PM|       PM|   PM|   PM|   PM|
  S  S S S S S S S S S S S    S  S S S S S S S S S S S
|--------------------------|------------------------------||
|--------------------------|-----------------------------o||
|--------------------------|------------------------------||
|-7------7-----7-----7-----|--7------7-----7-----7--------||
|-7--7-7-7-7-7-7-7-7-7-7-7-|--7--7-7-7-7-7-7-7-7-7-7-7---o||
|-5--5-5-5-5-5-5-5-5-5-5-5-|--5--5-5-5-5-5-5-5-5-5-5-5----||


  C#5
  Gtrs I, II
   H.         +H.
|----------|---------*|
|----------|---------*|
|----------|---------*|
|----------|---------*|
|-11-------|-(11)----*|
|--9-------|--(9)----*|

Duration Legend
---------------
W - whole; H - half; Q - quarter; E - 8th; S - 16th; T - 32nd; X - 64th; a - acciaccatura
+ - note tied to previous; . - note dotted; .. - note double dotted
Uncapitalized letters represent notes that are staccato (1/2 duration)
Irregular groupings are notated above the duration line
Duration letters will always appear directly above the note/fret number it represents the
duration for.  Duration letters with no fret number below them represent rests.  Multi-
bar rests are notated in the form Wxn, where n is the number of bars to rest for.  Low
melody durations appear below the staff

Tablature Legend
----------------
 h   - hammer-on
 p   - pull-off
 b   - bend
 pb  - pre-bend
 r   - bend release (if no number after the r, then release immediately)
 /\  - slide into or out of (from/to "nowhere")
 s   - legato slide
 S   - shift slide
  - natural harmonic
[n]  - artificial harmonic
n(n) - tapped harmonic
 ~   - vibrato
 tr  - trill
 T   - tap
 TP  - trem. picking
 PM  - palm muting
\n/  - tremolo bar dip; n = amount to dip
 \n  - tremolo bar down
 n/  - tremolo bar up
/n\  - tremolo bar inverted dip
 =   - hold bend; also acts as connecting device for hammers/pulls
 <>  - volume swell (louder/softer)
 x   - on rhythm slash represents muted slash
 o   - on rhythm slash represents single note slash

Misc Legend
-----------
 |  - bar
||  - double bar
||o - repeat start
o|| - repeat end
*|  - double bar (ending)
 :  - bar (freetime)
 $  - Segno
 &  - Coda
Tempo markers -  = BPM(8/16=s8/s16), where s8 = swing 8ths, s16 = swing 16ths


comments
print report bad tab
5 comments total. Showing first comments.
+1 reply
Decentts wrote on December 21 2007, 02:50 pm

nice job this is the exact way i have seen them play it

0 reply
thedude97 wrote on December 21 2007, 05:06 pm

Nice, I had never thought of playing the verse that way. I usually use a C# power chord to start it off instead of 9 on
the E string, but your way is easier.

+2 reply
FlyingToasterz wrote on December 21 2007, 07:02 pm

i saw claudio play the verse with the 9 on the E string so i tabbed it like that. but at first i thought it was with the
C# power chord.

I want to post or [tab]
guest
You may want to rate the tab now too:
select rating
Please do not post tabs as comments. Select "correction" instead!