Oops, an error
Loading. Please wait.

Junesong Provision Tab

ver3
ver3

Whole song

More versions @911Tabs.com
18,013 views 36 this week
4 commentsread comments
1 2 3 4 5
excellent!
x 6
add to favorites launch autoscroll
font size
0
reset
Autoscroll
+/-
esc
set tempo
stop
Contributor
Difficulty
Tabbers playing skills
intermediate
advanced +
WARNING: You are trying to view
                                    content from Ultimate-Guitar.com
                                    in an unauthorized application,
                                    which is prohibited.

                                    Please use an official Ultimate
                                    Guitar Tabs application for iPhone,
                                    iPad or Android to access legitimate
                                    chords, guitar, bass, and drum tabs
                                    from Ultimate-Guitar.com database.

                                    Type "ultimate guitar tabs" in Apple
                                    App Store's or Android Market's
                                    search to find the application.
Tabbed by :By Francis(f_sario@yahoo.com)
          :LUcena SHC  
          :09283150081   

          
           E                   F#                    G                    B
      x 7 x 9 x x         x 9 x 11 x x         x 10 x 12 x x        x 14 x 16 x x

           A                   B5
     x 12 x 14 x x         9 9 x x x x

Gtr I (D A D G B E) - 'dist.'
Gtr II (D A D G B E) - 'dist.'
Gtr III (D A D G B E) - 'clean'
Gtr IV (D A D G B E) - 'clean'

 Intro
  Moderate Rock Q=164
    B5              D     F#5     D5          Gsus2
 1/4    4/4
    Gtr I
                      PM|   PM--|   PM|   PM|
  S E.   +E  E +E   E E E E E   E E E E E E E E
|------|----------------------|-----------------|
|------|----------------------|-----------------|
|------|----------------------|-----------------|
|------|----------------------|---------------7-|
|---9--|-(9)-9-(9)\-5-5-5-4-4-|-4-0-0-0-0-0-0-5-|
|---9--|-(9)-9-(9)\-0-0-0-4-4-|-4-0-0-0-0-0-0-5-|
|
| Q       W                     W
|------|----------------------|-----------------|
|------|----------------------|-----------------|
|------|----------------------|-----------------|
|------|----------------------|-----------------|
|------|----------------------|-----------------|
|------|----------------------|-----------------|


          G5              D5      A/C#B5
        PM------------|
  +E  E E E E E E E   E   E E E E E E E
|-------------------|-------------------|
|-------------------|-------------------|
|-------------------|-------------------|
|-(7)-7-------------|-----7-7-7-7-7-7---|
|-(5)-5-5-5-5-5-5-5-|-5---5-5-5-5-4-0-9-|
|-(5)-5-5-5-5-5-5-5-|-5---------------9-|
|
|                                     Gtr II
|  W                  H..             E
|-------------------|-------------------|
|-------------------|-------------------|
|-------------------|-----------------4-|
|-------------------|-----------------4-|
|-------------------|-----------------2-|
|-------------------|-------------------|


          D     F#5       D5          Gsus2
            PM|   PM--|     PM|   PM|
  +E  Q   E E E E E    E  E E E E E E E
|-------------------|-------------------|
|-------------------|-------------------|
|-------------------|-------------------|
|-------------------|-----------------7-|
|-(9)-9\--5-5-5-4-4-|--4--0-0-0-0-0-0-5-|
|-(9)-9\--0-0-0-4-4-|--4--0-0-0-0-0-0-5-|
|
| +Q.     E E E E E   +E  E E Q   E E E
|-------------------|-----------------5-|
|-------------------|-------------3-----|
|-(4)---------4-----|-----4---4-----4---|
|-(4)-----4-5---4-5-|-(5)---4-----------|
|-(2)---------------|-------------------|
|-------------------|-------------------|


        G5                       D5           A/C#B5
         PM-------------------|
  +E  E  E  E E    E  E E      E  E E    E  E E E E
|---------------------------|-----------------------|
|---------------------------|-----------------------|
|---------------------------|-----------------------|
|-(7)-7---------------------|-----7-7----7--7-7-7---|
|-(5)-5--5--5-5----5--5-5---|--5--5-5----5--5-4-0-9-|
|-(5)-5--5--5-5----5--5-5---|--5------------------9-|
|
| +E  E  E  E S S  E  E S S    E  E S S  E  E E E E
|-(5)------10--------10-----|----10--------10-------|
|-----8-10----7-8-10----7-8-|-10----7-8-10----8-----|
|---------------------------|---------------------4-|
|---------------------------|---------------------4-|
|---------------------------|---------------------2-|
|---------------------------|-----------------------|


          D     F#5       D5          Gsus2
            PM|   PM--|     PM|   PM|
  +E  Q   E E E E E    E  E E E E E E E
|-------------------|-------------------|
|-------------------|-------------------|
|-------------------|-------------------|
|-------------------|-----------------7-|
|-(9)-9\--5-5-5-4-4-|--4--0-0-0-0-0-0-5-|
|-(9)-9\--0-0-0-4-4-|--4--0-0-0-0-0-0-5-|
|
| +Q.     E E E E E   +E  E E Q   E E E
|-------------------|-----------------5-|
|-------------------|-------------3-----|
|-(4)---------4-----|-----4---4-----4---|
|-(4)-----4-5---4-5-|-(5)---4-----------|
|-(2)---------------|-------------------|
|-------------------|-------------------|


         G5                     D5      A/C#B5
          PM-----------------|
  +E   E  E  E  E  E  E  E    E E E E E E E E
|--------------------------|-------------------||
|--------------------------|-------------------||
|--------------------------|-------------------||
|-(7)--7-------------------|----7-7-7-7-7-7----||
|-(5)--5--5--5--5--5--5--5-|--5-5-5-5-5-4-0-9--||
|-(5)--5--5--5--5--5--5--5-|--5-------------9--||
|
| +E   E  E  E  E  E  E  E    E E E Q   E E E
|-(5)----------10-------10-|-10----------------||
|-----10-10-10----10-10----|----8-7-----7------||
|--------------------------|--------9-----9-4--||
|--------------------------|----------------4--||
|--------------------------|----------------2--||
|--------------------------|-------------------||


 Verse 1
          D      F#5      D5            Gsus2
             PM|    PM--|     PM|   PM|
  +E  Q   E  E E E  E   E  E  E E E E E E
|---------------------|-------------------|
|---------------------|-------------------|
|---------------------|-------------------|
|---------------------|-----------------7-|
|-(9)-9\--5--5-5-4--4-|-4--0--0-0-0-0-0-5-|
|-(9)-9\--0--0-0-4--4-|-4--0--0-0-0-0-0-5-|
|
| +Q.     E  E Q    E   E  E  E E E E E E
|---------------------|-------------------|
|---------------------|-------------------|
|-(4)-------/9-----11-|---12s11---9s7-----|
|-(4)-------/x------x-|----xs=x---xsx-----|
|-(2)-------/7------9-|---10s=9---7s5---5-|
|---------------------|-----------------5-|


        G5              D5      A/C#B5
        PM------------|
  +E  E E E E E E E   E E E E E E E E
|-------------------|------------------|
|-------------------|------------------|
|-------------------|------------------|
|-(7)-7-------------|---7-7-7-7-7-7----|
|-(5)-5-5-5-5-5-5-5-|-5-5-5-5-5-4-4-9--|
|-(5)-5-5-5-5-5-5-5-|-5-------------9--|
|
|  E  E E E E E E E   E E E E E E E E
|-------------------|------------------|
|-------------------|------------------|
|-------7-----7-----|-7-7-7-7-7-6-6-4--|
|-------x-----x-----|-x-x-x-x-x-x-x-4--|
|--5--5---5-5---5-5-|---5-5-5-5-4-4-2--|
|--5--5---5-5---5-5-|------------------|


            D      F#5      D5            Gsus2
               PM|    PM--|     PM|   PM|
    +E  Q    E E E E  E   E  E  E E E E E E
||----------------------|-------------------|
||o---------------------|-------------------|
||----------------------|-------------------|
||----------------------|-----------------7-|
||o-(9)-9\---5-5-5-4--4-|-4--0--0-0-0-0-0-5-|
||--(9)-9\---0-0-0-4--4-|-4--0--0-0-0-0-0-5-|
|
|   +Q.      E E Q    E   E  E  E E E E E E
||----------------------|-------------------|
||o---------------------|-------------------|
||--(4)-----/9-9-----11-|---12s11---9s7-----|
||--(4)-----/x-x------x-|----xs=x---xsx-----|
||o-(2)-----/7-7------9-|---10s=9---7s5---5-|
||----------------------|-----------------5-|


        G5              D5      A/C#
        PM------------|
  +E  E E E E E E E   E E E E E E E E
|-------------------|------------------||
|-------------------|-----------------o||
|-------------------|------------------||
|-(7)-7-------------|---7-7-7-7-7-7----||
|-(5)-5-5-5-5-5-5-5-|-5-5-5-5-5-4-0-9-o||
|-(5)-5-5-5-5-5-5-5-|-5-------------9--||
|
|  E  E E E E E E E   E E E E E E E E
|-------------------|------------------||
|-------------------|-----------------o||
|-------7-----7-----|-7-7-7-7-7-6-6-4--||
|-------x-----x-----|-x-x-x-x-x-x-x-4--||
|--5--5---5-5---5-5-|---5-5-5-5-4-4-2-o||
|--5--5---5-5---5-5-|------------------||


          D      F#5      D5            Gsus2     G5
             PM|    PM--|     PM|   PM|           PM-----------
  +E  Q    E E E E  E   E  E  E E E E E E   +E  E E E E E E E
|---------------------|-------------------|-------------------|
|---------------------|-------------------|-------------------|
|---------------------|-------------------|-------------------|
|---------------------|-----------------7-|-(7)-7-------------|
|-(9)-9\---5-5-5-4--4-|-4--0--0-0-0-0-0-5-|-(5)-5-5-5-5-5-5-5-|
|-(9)-9\---0-0-0-4--4-|-4--0--0-0-0-0-0-5-|-(5)-5-5-5-5-5-5-5-|
|
| +Q.      E E Q    E   E  E  E E E E E E    E  E E E E E E E
|---------------------|-------------------|-------------------|
|---------------------|-------------------|-------------------|
|-(4)-----/9-9-----11-|---12s11---9s7-----|-------7-----7-----|
|-(4)-----/x-x------x-|----xs=x---xsx-----|-------x-----x-----|
|-(2)-----/7-7------9-|---10s=9---7s5---5-|--5--5---5-5---5-5-|
|---------------------|-----------------5-|--5--5---5-5---5-5-|


    D5      A/C#D5                          B5
 -|
  E E E E E E E E   +W           +H..       E
|-----------------|------------|---------------||
|-----------------|------------|---------------||
|-----------------|------------|---------------||
|---7-7-7-7-7-----|------------|---------------||
|-5-5-5-5-5-4---0-|-(0)--------|-(0)--------9--||
|-5-------------0-|-(0)--------|-(0)--------9--||
|
| E E E E E E E E   +W           +H..       E
|-----------------|------------|---------------||
|-----------------|------------|---------------||
|-7-7-7-7-7-6-----|------------|------------4--||
|-x-x-x-x-x-x-----|------------|------------4--||
|---5-5-5-5-4---0-|-(0)--------|-(0)--------2--||
|---------------0-|-(0)--------|-(0)-----------||


 Verse 2
          D     F#5       D5          Gsus2
            PM|   PM--|     PM|   PM|
  +E  Q   E E E E E    E  E E E E E E E
|-------------------|-------------------|
|-------------------|-------------------|
|-------------------|-------------------|
|-------------------|-----------------7-|
|-(9)-9\--5-5-5-4-4-|--4--0-0-0-0-0-0-5-|
|-(9)-9\--0-0-0-4-4-|--4--0-0-0-0-0-0-5-|
|
| +Q.     E E E E E   +E  E E Q   E E E
|-------------------|-----------------5-|
|-------------------|-------------3-----|
|-(4)---------4-----|-----4---4-----4---|
|-(4)-----4-5---4-5-|-(5)---4-----------|
|-(2)---------------|-------------------|
|-------------------|-------------------|


        G5                       D5           A/C#
         PM-------------------|
  +E  E  E  E E    E  E E      E  E E    E  E E E E
|---------------------------|-----------------------|
|---------------------------|-----------------------|
|---------------------------|-----------------------|
|-(7)-7---------------------|-----7-7----7--7-7-7---|
|-(5)-5--5--5-5----5--5-5---|--5--5-5----5--5-4-0-9-|
|-(5)-5--5--5-5----5--5-5---|--5------------------9-|
|
| +E  E  E  E S S  E  E S S    E  E S S  E  E E E E
|-(5)------10--------10-----|----10--------10-------|
|-----8-10----7-8-10----7-8-|-10----7-8-10----8-----|
|---------------------------|---------------------4-|
|---------------------------|---------------------4-|
|---------------------------|---------------------2-|
|---------------------------|-----------------------|


          D     F#5       D5          Gsus2
            PM|   PM--|     PM|   PM|
  +E  Q   E E E E E    E  E E E E E E E
|-------------------|-------------------|
|-------------------|-------------------|
|-------------------|-------------------|
|-------------------|-----------------7-|
|-(9)-9\--5-5-5-4-4-|--4--0-0-0-0-0-0-5-|
|-(9)-9\--0-0-0-4-4-|--4--0-0-0-0-0-0-5-|
|
| +Q.     E E E E E   +E  E E Q   E E E
|-------------------|-----------------5-|
|-------------------|-------------3-----|
|-(4)---------4-----|-----4---4-----4---|
|-(4)-----4-5---4-5-|-(5)---4-----------|
|-(2)---------------|-------------------|
|-------------------|-------------------|


         G5                     D5      A/C#B5
          PM-----------------|
  +E   E  E  E  E  E  E  E    E E E E E E E E
|--------------------------|-------------------|
|--------------------------|-------------------|
|--------------------------|-------------------|
|-(7)--7-------------------|----7-7-7-7-7-7----|
|-(5)--5--5--5--5--5--5--5-|--5-5-5-5-5-4-0-9--|
|-(5)--5--5--5--5--5--5--5-|--5-------------9--|
|
| +E   E  E  E  E  E  E  E    E E E Q   E E E
|-(5)----------10-------10-|-10----------------|
|-----10-10-10----10-10----|----8-7-----7------|
|--------------------------|--------9-----9-4--|
|--------------------------|----------------4--|
|--------------------------|----------------2--|
|--------------------------|-------------------|


          D     F#5       D5          Gsus2
            PM|   PM--|     PM|   PM|
  +E  Q   E E E E E    E  E E E E E E E
|-------------------|-------------------|
|-------------------|-------------------|
|-------------------|-------------------|
|-------------------|-----------------7-|
|-(9)-9\--5-5-5-4-4-|--4--0-0-0-0-0-0-5-|
|-(9)-9\--0-0-0-4-4-|--4--0-0-0-0-0-0-5-|
|
| +Q.     E E E E E   +E  E E Q   E E E
|-------------------|-----------------5-|
|-------------------|-------------3-----|
|-(4)---------4-----|-----4---4-----4---|
|-(4)-----4-5---4-5-|-(5)---4-----------|
|-(2)---------------|-------------------|
|-------------------|-------------------|


        G5                       D5           A/C#B5
         PM-------------------|
  +E  E  E  E E    E  E E      E  E E    E  E E E E
|---------------------------|-----------------------|
|---------------------------|-----------------------|
|---------------------------|-----------------------|
|-(7)-7---------------------|-----7-7----7--7-7-7---|
|-(5)-5--5--5-5----5--5-5---|--5--5-5----5--5-4-0-9-|
|-(5)-5--5--5-5----5--5-5---|--5------------------9-|
|
| +E  E  E  E S S  E  E S S    E  E S S  E  E E E E
|-(5)------10--------10-----|----10--------10-------|
|-----8-10----7-8-10----7-8-|-10----7-8-10----8-----|
|---------------------------|---------------------4-|
|---------------------------|---------------------4-|
|---------------------------|---------------------2-|
|---------------------------|-----------------------|


          D     F#5       D5          Gsus2
            PM|   PM--|     PM|   PM|
  +E  Q   E E E E E    E  E E E E E E E
|-------------------|-------------------|
|-------------------|-------------------|
|-------------------|-------------------|
|-------------------|-----------------7-|
|-(9)-9\--5-5-5-4-4-|--4--0-0-0-0-0-0-5-|
|-(9)-9\--0-0-0-4-4-|--4--0-0-0-0-0-0-5-|
|
| +Q.     E E E E E   +E  E E Q   E E E
|-------------------|-----------------5-|
|-------------------|-------------3-----|
|-(4)---------4-----|-----4---4-----4---|
|-(4)-----4-5---4-5-|-(5)---4-----------|
|-(2)---------------|-------------------|
|-------------------|-------------------|


         G5                     D5      A/C#D5
          PM-----------------|
  +E   E  E  E  E  E  E  E    E E E E E E E E
|--------------------------|-------------------|
|--------------------------|-------------------|
|--------------------------|-------------------|
|-(7)--7-------------------|----7-7-7-7-7-x----|
|-(5)--5--5--5--5--5--5--5-|--5-5-5-5-5-4-x-0--|
|-(5)--5--5--5--5--5--5--5-|--5-------------0--|
|
| +E   E  E  E  E  E  E  E    E E E Q   E E E
|-(5)----------10-------10-|-10----------------|
|-----10-10-10----10-10----|----8-7-----7------|
|--------------------------|--------9----------|
|--------------------------|-------------------|
|--------------------------|----------------0--|
|--------------------------|----------------0--|


                                                      G/B
                        Gtrs I, II
  +W           +H.      E E   +W           +W
|------------|--------------|------------|----------------||
|------------|--------------|------------|----------------||
|------------|--------------|------------|----------------||
|------------|--------------|------------|----------------||
|-(0)--------|-(0)------x-0-|-(0)--------|-(0)------------||
|-(0)--------|-(0)------x-0-|-(0)--------|-(0)------------||
|
|                                                     Gtr III
| +W           +W              W            H..        E
|------------|--------------|------------|----------------||
|------------|--------------|------------|----------------||
|------------|--------------|------------|----------------||
|------------|--------------|------------|----------------||
|-(0)--------|-(0)----------|------------|------------10--||
|-(0)--------|-(0)----------|------------|----------------||
|
|                                                     Gtr IV
|  W            W              W            H..        E
|------------|--------------|------------|----------------||
|------------|--------------|------------|----------------||
|------------|--------------|------------|----------------||
|------------|--------------|------------|-------------9--||
|------------|--------------|------------|----------------||
|------------|--------------|------------|----------------||


 Interlude
                         G5/A                    Csus2
  Gtr III
   +E   E  E  E  E  E  E E   +E   E  E Q    E  E  E
|--------------------------|------------------------|
|--------------------------|------------------------|
|------12-------12---------|-----12--------12-------|
|---------12-------12------|--------12--------12----|
|-(10)-------10-------10-9-|-(9)-------0------------|
|--------------------------|---------------------10-|
|
| Gtr IV
|  +E   E  E  E  E  E  E E   +E   E  E E E  E  E  E
|--------------------------|------------------------|
|-------8--------8---------|------8------8----------|
|----------7--------7------|---------7------7-------|
|--(9)--------9--------9-7-|-(7)-------7-------7-/7-|
|--------------------------|------------------------|
|--------------------------|------------------------|
|
| Gtrs I, II
|   >
|  +W                        +W
|--------------------------|------------------------|
|--------------------------|------------------------|
|--------------------------|------------------------|
|--------------------------|------------------------|
|--(0)---------------------|-(0)--------------------|
|--(0)---------------------|-(0)--------------------|


                                                   G/B
           PM       PM|        PM     PM         PM
   +E   E  E  E  E  E  E  E    E   E  E  E  E  E E  E
|---------------------------|--------------------------|
|---------------------------|--------------------------|
|------12----12-------------|--------------------------|
|---------------12-------14-|-----14----12-14-12-------|
|---------10-------10-10----|-10-----10----------0-10--|
|-(10)----------------------|--------------------------|
|
|   E   E  E  E  E  E  E  E    E   E  E  E  E  E E  E
|---------------------------|--------------------------|
|---------------------------|--------------------------|
|-------4--------4----------|------4--------4----------|
|----------7--5-----5--5-/7-|---------7--5-----5-5--9--|
|---------------------------|--------------------------|
|---------------------------|--------------------------|
|
|  +W                         +W
|---------------------------|--------------------------|
|---------------------------|--------------------------|
|---------------------------|--------------------------|
|---------------------------|--------------------------|
|--(0)----------------------|-(0)----------------------|
|--(0)----------------------|-(0)----------------------|


    G/B                    G5/A                    Csus2
                                                    PM-
     +E   E  E  E  E  E  E E   +E   E  E Q    E  E  E
||---------------------------|------------------------|
||o--------------------------|------------------------|
||-------12-------12---------|-----12--------12-------|
||----------12-------12------|--------12--------12----|
||o-(10)-------10-------10-9-|-(9)-------0------------|
||---------------------------|---------------------10-|
|
|    +E   E  E  E  E  E  E E   +E   E  E E E  E  E  E
||---------------------------|------------------------|
||o-------8--------8---------|------8------8----------|
||-----------7--------7------|---------7------7-------|
||---(9)--------9--------9-7-|-(7)-------7-------7-/7-|
||o--------------------------|------------------------|
||---------------------------|------------------------|


                                                  G/B
 -|        PM       PM|        PM    PM         PM
   +E   E  E  E  E  E  E  E    E  E  E  E  E  E E  E
|---------------------------|-------------------------||
|---------------------------|------------------------o||
|------12----12-------------|-------------------------||
|---------------12-------14-|----14----12-14-12-------||
|---------10-------10-10----|-10----10----------0-10-o||
|-(10)----------------------|-------------------------||
|
|   E   E  E  E  E  E  E  E    E  E  E  E  E  E E  E
|---------------------------|-------------------------||
|---------------------------|------------------------o||
|-------4--------4----------|-----4--------4----------||
|----------7--5-----5--5-/7-|--------7--5-----5-5--9--||
|---------------------------|------------------------o||
|---------------------------|-------------------------||


                         G5/A                    Csus2
                                                  PM
   +E   E  E  E  E  E  E E   +E   E  E Q    E  E  E    H..              E
|--------------------------|------------------------|---------------------|
|--------------------------|------------------------|---------------------|
|------12-------12---------|-----12--------12-------|------------------14-|
|---------12-------12------|--------12--------12----|-------------------x-|
|-(10)-------10-------10-9-|-(9)-------0------------|-10---------------10-|
|--------------------------|---------------------10-|-10---------------10-|
|
|  +E   E  E  E  E  E  E E   +E   E  E E E  E  E  E    E   E E E E E E  E
|--------------------------|------------------------|---------------------|
|-------8--------8---------|------8------8----------|---------------------|
|----------7--------7------|---------7------7-------|------4-----4--------|
|--(9)--------9--------9-7-|-(7)-------7-------7-/7-|--------7-5---5-5-/7-|
|--------------------------|------------------------|---------------------|
|--------------------------|------------------------|---------------------|


                                                                         Gtr I
   +E   Q    E  E  E  E  E    +H..              E    +E   Q    E  E   Q  E
|--------------------------|----------------------|----------------------0--||
|--------------------------|----------------------|-------------------------||
|-(14)------14-14-12-------|-------------------14-|-(14)------14-14--12-----||
|--(x)-------x--x--x-------|--------------------x-|--(x)-------x--x---x-----||
|-(10)-10---10-10-10----10-|-(10)--------------10-|-(10)-10---10-10--10-----||
|-(10)-10---10-10-10-10-10-|-(10)--------------10-|-(10)-10---10-10--10-----||
|
|                                                                        Gtr II
|   E   E E  E  E  E  E  E     E   E E E E E E  E     E   E E  E  Q.     E
|--------------------------|----------------------|----------------------0--||
|--------------------------|----------------------|-------------------------||
|-------4-------4----------|-------4-----4--------|-------4-------4---------||
|---------7--5-----5--5-/7-|---------7-5---5-5-/7-|---------7--5------------||
|--------------------------|----------------------|-------------------------||
|--------------------------|----------------------|-------------------------||


 Chorus
  Dsus4             Gsus2                F/Bb
      ~~~
  Q   Q   H         E   E   Q   Q   Q    Q  H    +E  E   E E H.
|-----------------|--------------------|---------------|--------------|
|---------8-------|--------------------|---------------|--------------|
|---------0-------|--------------------|---------------|--------------|
|-----7-----------|--------------------|----7----(7)---|-----7--------|
|-5---------------|--------[5]---------|---------------|--------------|
|-0---------------|-0h==5-------5---0--|-8-----------8-|-8-8----------|
|
|     ~~~
| Q   Q   E E E E   E   Q.      Q   Q    Q  H    +E  E   E E H     Q
|-----------------|--------------------|---------------|--------------|
|---------8-------|-------------8------|---------------|--------------|
|-----0---0-0-----|-7s[10]---------10--|---------------|--------------|
|----[7]--7-7-----|--------------------|----7----(7)---|-----7\-------|
|-5---------5-5-5-|--------------------|-8--8----(8)-8-|-8-8-8\-------|
|-0---------0-0-0-|--------------------|-8-----------8-|-8-8----------|


  Dsus4             Gsus2                F/Bb
      ~~~
  Q   Q   H         E   E   Q   Q   Q    Q  H    +E  E   E E H.
|-----------------|--------------------|---------------|--------------|
|---------8-------|--------------------|---------------|--------------|
|---------0-------|--------------------|---------------|--------------|
|-----7-----------|--------------------|----7----(7)---|-----7--------|
|-5---------------|--------[5]---------|---------------|--------------|
|-0---------------|-0h==5-------5---0--|-8-----------8-|-8-8----------|
|
|     ~~~
| Q   Q   E E E E   E   Q.      Q   Q    Q  H    +E  E   E E H     Q
|-----------------|--------------------|---------------|--------------|
|---------8-------|-------------8------|---------------|--------------|
|-----0---0-0-----|-7s[10]---------10--|---------------|--------------|
|----[7]--7-7-----|--------------------|----7----(7)---|-----7\-------|
|-5---------5-5-5-|--------------------|-8--8----(8)-8-|-8-8-8\-------|
|-0---------0-0-0-|--------------------|-8-----------8-|-8-8----------|


  Dsus4             Gsus2                F/Bb
      ~~~
  Q   Q   H         E   E   Q   Q   Q    Q  H    +E  E   E E H.
|-----------------|--------------------|---------------|--------------|
|---------8-------|--------------------|---------------|--------------|
|---------0-------|--------------------|---------------|--------------|
|-----7-----------|--------------------|----7----(7)---|-----7--------|
|-5---------------|--------[5]---------|---------------|--------------|
|-0---------------|-0h==5-------5---0--|-8-----------8-|-8-8----------|
|
|     ~~~
| Q   Q   E E E E   E   Q.      Q   Q    Q  H    +E  E   E E H     Q
|-----------------|--------------------|---------------|--------------|
|---------8-------|-------------8------|---------------|--------------|
|-----0---0-0-----|-7s[10]---------10--|---------------|--------------|
|----[7]--7-7-----|--------------------|----7----(7)---|-----7\-------|
|-5---------5-5-5-|--------------------|-8--8----(8)-8-|-8-8-8\-------|
|-0---------0-0-0-|--------------------|-8-----------8-|-8-8----------|


  Dsus4        Gsus2           F/Bb
     ~
  Q  Q  H      E E  Q  Q  Q    Q  H    +E  E    E  E H.
|------------|---------------|---------------|-------------|
|-------8----|---------------|---------------|-------------|
|-------0----|---------------|---------------|-------------|
|----7-------|---------------|----7----(7)---|-------7-----|
|-5----------|-----[5]-------|---------------|-------------|
|-0----------|-0h5-----5--0--|-8-----------8-|--8--8-------|
|
| Q  Q  H      Q    Q  Q  Q    W               +W
|------------|---------------|---------------|-------------|
|-------8----|------6s=8--6--|---------------|-------------|
|----0--0----|-7-------------|-7-------------|-(7)---------|
|----7-------|---------------|---------------|-------------|
|-5----------|---------------|---------------|-------------|
|-0----------|---------------|---------------|-------------|


  H.=H                                    Slower Q=155
  Dsus4              Gsus2                F/Bb
  Q  Q  E  E   Q      E E  Q     Q   Q     Q  H    +E  E
|------------------|--------------------|----------------|
|------------------|--------------------|----------------|
|-------0-(0)-(0)--|--------------------|----------------|
|----7--5h=7p==5---|--------------------|-----7----(7)---|
|-5----------------|------[5]-----------|----------------|
|-0----------------|--0h5--------5---0--|--8-----------8-|
|
|                                          ~~~~~~~~~~~~~~~
| W                   Q.      Q.     Q     W
|------------------|--------------------|----------------|
|-8----------------|----------8---------|----------------|
|-0----------------|-10-------------10--|-\7-------------|
|-7----------------|--------------------|----------------|
|------------------|--------------------|----------------|
|------------------|--------------------|----------------|


   E  E H    +E  E    Q   H    +E  E    E  E H.
|------------------|-----------------|-------------||
|------------------|-----------------|-------------||
|------------------|-----------------|-------------||
|-------7----(7)---|------7----(7)---|-------7-----||
|------------------|-----------------|-------------||
|--8--8----------8-|--8------------8-|--8--8-------||
|
|~~~~~~~~~~~~~~~~~~~~~~~~~~~~~~~~~~~~~~~~~~
| +W                 +W                +W
|------------------|-----------------|-------------||
|------------------|-----------------|-------------||
|-(7)--------------|-(7)-------------|-(7)---------||
|------------------|-----------------|-------------||
|------------------|-----------------|-------------||
|------------------|-----------------|-------------||


 Bridge
  D5
  Gtr III
    Q.     Q  Q  E    +E  Q  Q  E E E     Q.    Q  Q  E
|------------------|------9-----------|-----------------|
|---------/7-------|---------5--7-5---|--------/7-------|
|-------------7--6-|--(6)-----------7-|------------7--6-|
|---0--------------|------------------|---0-------------|
|---0--------------|------------------|---0-------------|
|---0--------------|------------------|---0-------------|
|
|   >
|   ~~~~~~~~~~~~~~~~~~~~~~~~~~~~~~~~~~~~~~~~~
|   W                 +W                 +W
|--22--------------|-(22)-------------|-(22)------------|
|------------------|------------------|-----------------|
|-([7])------------|--(7)-------------|--(7)------------|
|------------------|------------------|-----------------|
|------------------|------------------|-----------------|
|------------------|------------------|-----------------|


   +E  Q  Q  E E E     Q.    Q  Q  E    +E  Q  Q  E E E
|------9-----------|-----------------|------9-----------|
|---------5--7-5---|--------/7-------|---------5--7-5---|
|--(6)-----------7-|------------7--6-|--(6)-----------7-|
|------------------|---0-------------|------------------|
|------------------|---0-------------|------------------|
|------------------|---0-------------|------------------|
|
|   ~~~~~~~~~~~~~~~~~~~~~~~~~~~~~~~~~~~~~~~~
|  +W                 +W                +W
|-(22)-------------|-(22)------------|-(22)-------------|
|------------------|-----------------|------------------|
|--(7)-------------|--(7)------------|--(7)-------------|
|------------------|-----------------|------------------|
|------------------|-----------------|------------------|
|------------------|-----------------|------------------|


  Gsus2                                 Dmaj7/F#
  E Q   E  H          E Q   E H         E Q   E H         E Q   E  H
|-------------------|-----------------|-----------------|--------------------|
|-------------------|-----------------|-----------------|--------------------|
|---------(7)-------|---------7-------|---------7-------|----------7---------|
|----------7--------|---------7-------|---------7-------|----------7---------|
|-5-5---5--5--------|-5-5---5-5-------|-4-4---4-4-------|-4-4---4--4---------|
|-5-5---5--5--------|-5-5---5-5-------|-4-4---4-4-------|-4-4---4-(4)--------|
|
| Gtr IV
| E E E E  E  E E E   E E E E E E E E   E E E E E E E E   E E E E  E  E E E
|-----0-----------0-|---------0-------|---7-----7-----7-|-----7-------7------|
|----------7--------|-----------7-----|-5---5-----5-----|-5-----5-------5----|
|---7---7-----7-7---|-7---7-------7---|-------7-----7---|---7------7------7--|
|-------------------|---0---0-------0-|-----------------|--------------------|
|-------------------|-----------------|-----------------|--------------------|
|-------------------|-----------------|-----------------|--------------------|


  D5
  Q.    Q   Q  E   +E  Q   Q   E E E    Q.      Q   Q  E
|----------------|-----9-------------|-------------------|
|------/7--------|---------5---7-5---|---------/7--------|
|-----------7--6-|-(6)-------------7-|--------------7--6-|
|-0--------------|-------------------|--0----------------|
|-0--------------|-------------------|--0----------------|
|-0--------------|-------------------|--0----------------|
|
| H       E Q  E   +E  E E E E E E E   +E  Q.     E Q  E
|----------------|-----------0-------|-------------------|
|---------8p7----|-------7-----7---7-|-(7)--------8p7----|
|--------------9-|-(9)-9---9-----9---|-----------------9-|
|----------------|-------------------|-------------------|
|----------------|-------------------|-------------------|
|----------------|-------------------|-------------------|


  +E  Q   Q   E E E    Q.      Q   Q  E   +E  Q   Q   E E E
|-----9-------------|-------------------|-----9-------------|
|---------5---7-5---|---------/7--------|---------5---7-5---|
|-(6)-------------7-|--------------7--6-|-(6)-------------7-|
|-------------------|--0----------------|-------------------|
|-------------------|--0----------------|-------------------|
|-------------------|--0----------------|-------------------|
|
| +E  E E E E E E E   +E  Q.     E Q  E   +E  E E E E E E E
|-----------0-------|-------------------|-----------0---0---|
|-------7-----7---7-|-(7)--------8p7----|-------7-----7-----|
|-(9)-9---9-----9---|-----------------9-|-(9)-9---9-------7-|
|-------------------|-------------------|-------------------|
|-------------------|-------------------|-------------------|
|-------------------|-------------------|-------------------|


  Gsus2                                 Dmaj7/F#
  E Q   E  H          E Q   E H         E Q   E H         E Q   E  H
|-------------------|-----------------|-----------------|--------------------||
|-------------------|-----------------|-----------------|--------------------||
|---------(7)-------|---------7-------|---------7-------|----------7---------||
|----------7--------|---------7-------|---------7-------|----------7---------||
|-5-5---5--5--------|-5-5---5-5-------|-4-4---4-4-------|-4-4---4--4---------||
|-5-5---5--5--------|-5-5---5-5-------|-4-4---4-4-------|-4-4---4-(4)--------||
|
| E E E E  E  E E E   E E E E E E E E   E E E E E E E E   E E E E  E  E E E
|---0-------------0-|---------0-------|---7-----7-----5-|-----5-------3------||
|-----7----7--------|-----------------|-5---5-----5-----|-5-----5-------5----||
|-7-----7-----7-7---|-7---7-----7-----|-------7-----7---|---7------7------7--||
|-------------------|---0---0-----0-0-|-----------------|--------------------||
|-------------------|-----------------|-----------------|--------------------||
|-------------------|-----------------|-----------------|--------------------||


 Breakdown
  A Tempo Q=164
  G5F#D5A5F#D5    F#D5  F#D5  F#5   G5
 6/8                         4/4
  Gtrs I, II
  E E E E E E   E E E E E E   Q  Q  Q  Q
|-------------|-------------|-------------|
|-------------|-------------|-------------|
|-------------|-------------|-------------|
|-------------|-------------|-4-----5-----|
|-5p4p0-7p4p0-|-0h4p0-0h4p0-|-4-----5-----|
|-5p4p0-7p4p0-|-0h4p0-0h4p0-|-4-----5-----|


    G5/C#         G5            D/G           Gsus2
   6/8
    E E E E E E   E E E E E E   E E E E E E   E E E E E E
||--------------|-------------|-------------|---------------||
||o-------------|-------------|-------------|--------------o||
||--------------|-------------|-------------|---------------||
||--------------|-------------|-4-4---4-4---|-7-7---7-7-----||
||o-4-4---4-4---|-5-5---5-5---|-5-5---5-5---|-5-5---5-5----o||
||--5-5---5-5---|-5-5---5-5---|-5-5---5-5---|-5-5---5-5-----||


  B5             F#m/A          E     F#          G           F#
  Gtr I
  H.             H.             E Q    Q      E    E  E  E  E  E E
|--------------|--------------|-----------------|------------------|
|--------------|--------------|-----------------|------------------|
|--------------|--------------|-----------------|------------------|
|-4------------|-4------------|--------4\-------|-----------4h=5p0-|
|-2------------|-0------------|-----------------|------------------|
|--------------|--------------|-0h5-------------|--2h=4------------|
|
| Gtr II
| E  E E E E E   E  E E E E E   E E E  E   E  E    E  E  E  E  E E
|--------------|--------------|-----------------|------------------|
|--------------|--------------|-----------------|------------------|
|--------------|------------7-|-9-9-9-11--11-12-|-12-12-11-11-11---|
|-4--4-4-4-4-4-|-4--4-4-4---x-|-x-x-x--x---x--x-|--x--x--x--x--0---|
|-2--2-2-2-2-2-|-0--0-0-0-0-5-|-7-7-7--9---9-10-|-10-10--9--9----0-|
|--------------|--------------|-----------------|------------------|


  B5             F#m/A           B               A    G     A    G
  H.             H.               E  Q     Q      E    E  E  E E   E   E
|--------------|---------------|--------------------|--------------------|
|--------------|---------------|--------------------|--------------------|
|--------------|---------------|--------------------|--------------------|
|-4------------|-4-------------|-----------4\-------|----------4h==5p==0-|
|-2------------|-0-------------|--------------------|--------------------|
|--------------|---------------|--0h=5--------------|--2h=4--------------|
|
| E  E E E E E   E  E E E E  E    E  E  E  E   E  E    E  E  Q    +Q
|--------------|---------------|--------------------|--------------------|
|--------------|---------------|--------------------|--------------------|
|--------------|------------14-|-14-12-12-12--11-11-|-11-12-11---(11)\---|
|-4--4-4-4-4-4-|-4--4-4-4----x-|--x--x--x--x---x--x-|--x--x--x----(x)\---|
|-2--2-2-2-2-2-|-0--0-0-0-0-12-|-12-10-10-10---9--9-|--9-10--9----(9)\---|
|--------------|---------------|--------------------|--------------------|


    G5/C#         G5            D/G           Gsus2
    Gtrs I, II
    E E E E E E   E E E E E E   E E E E E E   E E E E E E
||--------------|-------------|-------------|--------------||
||o-------------|-------------|-------------|-------------o||
||--------------|-------------|-------------|--------------||
||--------------|-------------|-4-4---4-4---|-7-7---7-7----||
||o-4-4---4-4---|-5-5---5-5---|-5-5---5-5---|-5-5---5-5---o||
||--5-5---5-5---|-5-5---5-5---|-5-5---5-5---|-5-5---5-5----||


    B5             F#m/A          E            F#      G        F#
    Gtr I
    H.             H.             E Q    Q      E    E  E  E  E  E E
||---------------|--------------|-----------------|------------------|
||o--------------|--------------|-----------------|------------------|
||---------------|--------------|-----------------|------------------|
||--4------------|-4------------|--------4\-------|-----------4h=5p0-|
||o-2------------|-0------------|-----------------|------------------|
||---------------|--------------|-0h5-------------|--2h=4------------|
|
|   Gtr II
|   E  E E E E E   E  E E E E E   E E E  E   E  E    E  E  E  E  E E
||---------------|--------------|-----------------|------------------|
||o--------------|--------------|-----------------|------------------|
||---------------|------------7-|-9-9-9-11--11-12-|-12-12-11-11-11---|
||--4--4-4-4-4-4-|-4--4-4-4---x-|-x-x-x--x---x--x-|--x--x--x--x--0---|
||o-2--2-2-2-2-2-|-0--0-0-0-0-5-|-7-7-7--9---9-10-|-10-10--9--9----0-|
||---------------|--------------|-----------------|------------------|


  B5             F#m/A           B               A    G     A    G
  H.             H.               E  Q     Q      E    E  E  E E   E   E
|--------------|---------------|--------------------|---------------------||
|--------------|---------------|--------------------|--------------------o||
|--------------|---------------|--------------------|---------------------||
|-4------------|-4-------------|-----------4\-------|----------4h==5p==0--||
|-2------------|-0-------------|--------------------|--------------------o||
|--------------|---------------|--0h=5--------------|--2h=4---------------||
|
| E  E E E E E   E  E E E E  E    E  E  E  E   E  E    E  E  Q    +Q
|--------------|---------------|--------------------|---------------------||
|--------------|---------------|--------------------|--------------------o||
|--------------|------------14-|-14-12-12-12--11-11-|-11-12-11---(11)\----||
|-4--4-4-4-4-4-|-4--4-4-4----x-|--x--x--x--x---x--x-|--x--x--x----(x)\----||
|-2--2-2-2-2-2-|-0--0-0-0-0-12-|-12-10-10-10---9--9-|--9-10--9----(9)\---o||
|--------------|---------------|--------------------|---------------------||


  G5/C#         G5            D/G           Gsus2
  Gtrs I, II
  E E E E E E   E E E E E E   E E E E E E   E E E E E E
|-------------|-------------|-------------|-------------||
|-------------|-------------|-------------|-------------||
|-------------|-------------|-------------|-------------||
|-------------|-------------|-4-4---4-4---|-7-7---7-7---||
|-4-4---4-4---|-5-5---5-5---|-5-5---5-5---|-5-5---5-5---||
|-5-5---5-5---|-5-5---5-5---|-5-5---5-5---|-5-5---5-5---||


 Interlude
  N.C.
  Gtr II
   E E  E  E E  E   E  E  E E  E  E   E  E  E E  E   E   E  E  E   E   E  E
|-----------------|-----------------|------------------|--------------------|
|----8-------8----|-8-10----8-------|-8-------8-(8)----|-8-10------8--------|
|-11---11-11---11-|------11---11-11-|---11-11---11--11-|------11-(10)-11-11-|
|-----------------|-----------------|------------------|--------------------|
|-----------------|-----------------|------------------|--------------------|
|-----------------|-----------------|------------------|--------------------|


    E   E  E   E   E  E     E    E   E E  E   E
|-----------------------|-----------------------|
|---8----------8--------|---8---10-----8-(8)----|
|-(10)-11-11-(10)-11-11-|-(10)-(11)-11---11--11-|
|-----------------------|-----------------------|
|-----------------------|-----------------------|
|-----------------------|-----------------------|


   E E  E  E E  E   E  E  E  E E  E
|-12------12------|---------12------||
|----8-------8----|-8-10-------8----||
|------11------11-|------11------11-||
|-----------------|-----------------||
|-----------------|-----------------||
|-----------------|-----------------||


 Outro
  Am                Asus2                  Bbmaj7suC5/Eb
 4/4
  Gtr I
   E  E  E  E  E  E  E E    E  E E  E  E E  E  E
|------------------------|-----------------------|
|------------------------|-----------------------|
|------------------------|-----------------------|
|-10-10----10-10--x--9-9-|-----9-9-----9-9-12-12-|
|--7--7-----7--7--x--7-7-|-----7-7-----7-7--7--7-|
|--7--7-----7--7--x--7-7-|-----7-7-----7-7--7--7-|
|
| Gtr II
|  E  E  E  E  E  E  E E    E  E E  E  E E  E  E
|------------------------|-----------------------|
|-----8--------8-------8-|-10----8-------8-------|
|-11----11-11----11-11---|----11---11-11---11-11-|
|------------------------|-----------------------|
|------------------------|-----------------------|
|------------------------|-----------------------|


                    Bm
   E  E  E  E  E  E  E  E    E  E  E  E  E  E  E  E
|-------------------------|-------------------------|
|-------------------------|-------------------------|
|-------------------------|-------------------------|
|-10-10----10-10----12-12-|----12-12----12-12-12-12-|
|-10-10----10-10-----9--9-|-----9--9-----9--9--9--9-|
|-10-10----10-10-----9--9-|-----9--9-----9--9--9--9-|
|
|  E  E  E  E  E  E  E  E    E  E  E  E  E  E  E  E
|-------------------------|-------------------------|
|-----8--------8--------8-|-10-----8--------8-------|
|-11----11-11----11-11----|----11----11-11----11-11-|
|-------------------------|-------------------------|
|-------------------------|-------------------------|
|-------------------------|-------------------------|


    Csus2
  E  E  E E  E  E  E  E   E  E  E E  E  E  E  E
|-----------------------|-----------------------|
|-----------------------|-----------------------|
|-----------------------|-----------------------|
|---12-12---12-12-12-12-|---12-12---12-12-12-12-|
|---10-10---10-10-10-10-|---10-10---10-10-10-10-|
|---10-10---10-10-10-10-|---10-10---10-10-10-10-|
|
| E  E  E E  E  E  E  E   E  E  E E  E  E  E  E
|-----------------------|-----------------------|
|----5--5----5--5-----5-|----5--5----5--5-----5-|
|-7-------7--------7----|-7-------7--------7----|
|-----------------------|-----------------------|
|-----------------------|-----------------------|
|-----------------------|-----------------------|


  E  E  E E  E      E  E  E       E  E   E E  E  E  E  E
|-------------------------------|-------------------------|
|-------------------------------|-------------------------|
|-------------------------------|-------------------------|
|---12-12---12-----12-12-12-----|---12--12---12-12-12-12--|
|---10-10---10-----10-10-10-----|---10--10---10-10-10-10--|
|---10-10---10-----10-10-10-----|---10--10---10-10-10-10--|
|
| E  E  E E  E      E  E  E       E  E   E E  E  E  E  E
|----7-------7b7.5--------7b7.5-|----7\-------------------|
|----5-------5------------5-----|----5--------5-----5-----|
|-7-----7-7---------7--7--------|-7------7-7-----7-----7--|
|-------------------------------|-------------------------|
|-------------------------------|-------------------------|
|-------------------------------|-------------------------|


  Am              Asus2             Bbmaj7suC5/Eb
  Gtrs I, II
   E  E E  E  E E E E   E E E E E E  E  E
|---------------------|-------------------|
|---------------------|-------------------|
|---------------------|-------------------|
|-10-10---10-10-x-9-9-|---9-9---9-9-12-12-|
|--7--7----7--7-x-7-7-|---7-7---7-7--7--7-|
|--7--7----7--7-x-7-7-|---7-7---7-7--7--7-|


                  Bm
   E  E E  E  E E  E  E   E  E  E E  E  E  E  E
|-----------------------|------------------------|
|-----------------------|------------------------|
|-----------------------|------------------------|
|-10-10---10-10---12-12-|---12-12---12-12-12-12--|
|-10-10---10-10----9--9-|----9--9----9--9--9--9--|
|-10-10---10-10----9--9-|----9--9----9--9--9--9--|


    Csus2
  E  E  E E  E  E  E  E   E  E  E E  E  E  E  E
|-----------------------|-----------------------|
|-----------------------|-----------------------|
|-----------------------|-----------------------|
|---12-12---12-12-12-12-|---12-12---12-12-12-12-|
|---10-10---10-10-10-10-|---10-10---10-10-10-10-|
|---10-10---10-10-10-10-|---10-10---10-10-10-10-|
|
| W                       W
|-----------------------|-----------------------|
|-----------------------|-----------------------|
|-----------------------|-----------------------|
|-----------------------|-----------------------|
|-----------------------|-----------------------|
|-----------------------|-----------------------|


  E  E       E  E       E  E  E  E   E  E  E E  E  E  E  E
|----------------------------------|------------------------|
|----------------------------------|------------------------|
|----------------------------------|------------------------|
|---12------12---------12-12-12-12-|---12-12---12-12-12-12--|
|---10------10---------10-10-10-10-|---10-10---10-10-10-10--|
|---10------10---------10-10-10-10-|---10-10---10-10-10-10--|
|
|   Gtr II
| E  Q          Q.            Q      W
|--------------[7]b7.5-------------|------------------------|
|----------------------------------|------------------------|
|---[7]b7.5------------------------|------------------------|
|----------------------------------|------------------------|
|----------------------------------|------------------------|
|----------------------------------|------------------------|


  Am                Asus2                  Bbmaj7suC5/Eb
   E  E  E  E  E  E  E E    E  E E  E  E E  E  E
|------------------------|-----------------------|
|------------------------|-----------------------|
|------------------------|-----------------------|
|-10-10----10-10--x--9-9-|-----9-9-----9-9-12-12-|
|--7--7-----7--7--x--7-7-|-----7-7-----7-7--7--7-|
|--7--7-----7--7--x--7-7-|-----7-7-----7-7--7--7-|
|
|  PM------|      PM|          PM   PM|     PM----
|  E  E  E  E  E  E  E E    E  E E  E  E E  E  E
|------------------------|-----------------------|
|-----8--------8-------8-|-10----8-------8-------|
|-11----11-11----11-11---|----11---11-11---11-11-|
|------------------------|-----------------------|
|------------------------|-----------------------|
|------------------------|-----------------------|


                    Bm
   E  E  E  E  E  E  E  E    E  E  E  E  E  E  E  E
|-------------------------|--------------------------|
|-------------------------|--------------------------|
|-------------------------|--------------------------|
|-10-10----10-10----12-12-|----12-12----12-12-12-12--|
|-10-10----10-10-----9--9-|-----9--9-----9--9--9--9--|
|-10-10----10-10-----9--9-|-----9--9-----9--9--9--9--|
|
|-|      PM|      PM|           PM    PM          PM
|  E  E  E  E  E  E  E  E    E  E  E  E  E  E  E  E
|-------------------------|-------------12-----------|
|-----8--------8--------8-|-10-----8--------8--------|
|-11----11-11----11-11----|----11----11-------11-11--|
|-------------------------|--------------------------|
|-------------------------|--------------------------|
|-------------------------|--------------------------|


    Csus2
  E  E  E E  E  E  E  E   E  E  E E  E  E  E  E
|-----------------------|-----------------------|
|-----------------------|-----------------------|
|-----------------------|-----------------------|
|---12-12---12-12-12-12-|---12-12---12-12-12-12-|
|---10-10---10-10-10-10-|---10-10---10-10-10-10-|
|---10-10---10-10-10-10-|---10-10---10-10-10-10-|
|
| E  E  E E  E  E  E  E   E  E  E E  E  E  E  E
|-----------------------|-----------------------|
|----5--5----5--5-----5-|----5--5----5--5-----5-|
|-7-------7--------7----|-7-------7--------7----|
|-----------------------|-----------------------|
|-----------------------|-----------------------|
|-----------------------|-----------------------|


  E  E  E E  E  E  E  E    W
|------------------------|------|
|------------------------|------|
|------------------------|------|
|---12-12---12-12-12-12--|------|
|---10-10---10-10-10-10--|------|
|---10-10---10-10-10-10--|------|
|
| E  E  E E  E  E  E  E    W
|---------------------7\-|------|
|----5--5----5--5-----5\-|------|
|-7-------7--------7--7\-|------|
|------------------------|------|
|------------------------|------|
|------------------------|------|


  Am                Asus2                  Bbmaj7suC5/Eb
   E  E  E  E  E  E  E E    E  E E  E  E E  E  E
|------------------------|-----------------------|
|------------------------|-----------------------|
|------------------------|-----------------------|
|-10-10----10-10--x--9-9-|-----9-9-----9-9-12-12-|
|--7--7-----7--7--x--7-7-|-----7-7-----7-7--7--7-|
|--7--7-----7--7--x--7-7-|-----7-7-----7-7--7--7-|
|
|  PM------|      PM|          PM   PM|     PM|
|  E  E  E  E  E  E  E E    E  E E  E  E E  E  E
|------------------------|-----------------------|
|-----8--------8-------8-|-10----8-------8-------|
|-11----11-11----11-11---|----11---11-11---11-11-|
|------------------------|-----------------------|
|------------------------|-----------------------|
|------------------------|-----------------------|


                    Bm
   E  E  E  E  E  E  E  E    E  E  E  E  E  E  E  E
|-------------------------|--------------------------|
|-------------------------|--------------------------|
|-------------------------|--------------------------|
|-10-10----10-10----12-12-|----12-12----12-12-12-12--|
|-10-10----10-10-----9--9-|-----9--9-----9--9--9--9--|
|-10-10----10-10-----9--9-|-----9--9-----9--9--9--9--|
|
|  E  E  E  E  E  E  E  E    E  E  E  E  E  E  E  E
|-------------------------|--------------------------|
|-----8--------8--------8-|-10-----8--------8--------|
|-11----11-11----11-11----|----11----11-11----11-11--|
|-------------------------|--------------------------|
|-------------------------|--------------------------|
|-------------------------|--------------------------|


    Csus2
  E  E  E E  E  E  E  E   E  E  E E  E  E  E  E
|-----------------------|-----------------------|
|-----------------------|-----------------------|
|-----------------------|-----------------------|
|---12-12---12-12-12-12-|---12-12---12-12-12-12-|
|---10-10---10-10-10-10-|---10-10---10-10-10-10-|
|---10-10---10-10-10-10-|---10-10---10-10-10-10-|
|
| E  E  E E  E  E  E  E   E  E  E E  E  E  E  E
|-----------------------|-----------------------|
|----5--5----5--5-----5-|----5--5----5--5-----5-|
|-7-------7--------7----|-7-------7--------7----|
|-----------------------|-----------------------|
|-----------------------|-----------------------|
|-----------------------|-----------------------|


  E  E  E E  E  E  E  E   E  E  E E  E  E  E  E
|-----------------------|------------------------|
|-----------------------|------------------------|
|-----------------------|------------------------|
|---12-12---12-12-12-12-|---12-12---12-12-12-12--|
|---10-10---10-10-10-10-|---10-10---10-10-10-10--|
|---10-10---10-10-10-10-|---10-10---10-10-10-10--|
|
| E  E  E E  E  E  E  E   E  E  E E  E  E  E  E
|----7-------7--------5-|-------5----------------|
|-------5-------5-------|-5-------5-----5--------|
|-7-------7--------7----|----7-------7-----7--7--|
|-----------------------|------------------------|
|-----------------------|------------------------|
|-----------------------|------------------------|


  Am                Asus2                  Bbmaj7suC5/Eb
   E  E  E  E  E  E  E E    E  E E  E  E E  E  E
|------------------------|-----------------------|
|------------------------|-----------------------|
|------------------------|-----------------------|
|-10-10----10-10--x--9-9-|-----9-9-----9-9-12-12-|
|--7--7-----7--7--x--7-7-|-----7-7-----7-7--7--7-|
|--7--7-----7--7--x--7-7-|-----7-7-----7-7--7--7-|
|
|  PM------|      PM|          PM   PM|     PM----
|  E  E  E  E  E  E  E E    E  E E  E  E E  E  E
|------------------------|-----------------------|
|-----8--------8-------8-|-10----8-------8-------|
|-11----11-11----11-11---|----11---11-11---11-11-|
|------------------------|-----------------------|
|------------------------|-----------------------|
|------------------------|-----------------------|


                    Bm
   E  E  E  E  E  E  E  E    E  E  E  E  E  E  E  E
|-------------------------|--------------------------|
|-------------------------|--------------------------|
|-------------------------|--------------------------|
|-10-10----10-10----12-12-|----12-12----12-12-12-12--|
|-10-10----10-10-----9--9-|-----9--9-----9--9--9--9--|
|-10-10----10-10-----9--9-|-----9--9-----9--9--9--9--|
|
|-|      PM|      PM|           PM    PM|
|  E  E  E  E  E  E  E  E    E  E  E  E  E  E  E  E
|-------------------------|----------------12--------|
|-----8--------8--------8-|-10-----8-----------8-----|
|-11----11-11----11-11----|----11----11-11-------11--|
|-------------------------|--------------------------|
|-------------------------|--------------------------|
|-------------------------|--------------------------|


    Csus2
  E  E  E E  E  E  E  E   E  E  E E  E  E  E  E
|-----------------------|-----------------------|
|-----------------------|-----------------------|
|-----------------------|-----------------------|
|---12-12---12-12-12-12-|---12-12---12-12-12-12-|
|---10-10---10-10-10-10-|---10-10---10-10-10-10-|
|---10-10---10-10-10-10-|---10-10---10-10-10-10-|
|
| E  E  E E  E  E  E  E   E  E  E E  E  E  E  E
|-----------------------|----7--7----7--7--7--7-|
|----5--5----5--5-----5-|----5--5----5--5--5--5-|
|-7-------7--------7--7-|----7--7----7--7--7--7-|
|-----------------------|-----------------------|
|-----------------------|-----------------------|
|-----------------------|-----------------------|


  E  E  E E  E  E  E  E   E  E  E E  E  E   E  E
|-----------------------|-------------------------|
|-----------------------|-------------------------|
|-----------------------|-------------------------|
|---12-12---12-12-12-12-|---12-12---12-12--12-12--|
|---10-10---10-10-10-10-|---10-10---10-10--10-10--|
|---10-10---10-10-10-10-|---10-10---10-10--10-10--|
|
| E  E  E E  E  E  E  E   E  E  E E  E  Q      E
|----5--5----5--5--5--5-|----7--7----7------------|
|----5--5----5--5--5--5-|----5--5----5--5\--------|
|----7--7----7--7--7--7-|----7--7----7--7\--------|
|-----------------------|-------------------------|
|-----------------------|-------------------------|
|-----------------------|-------------------------|


  Am                Asus2                  Bbmaj7suC5/Eb
   E  E  E  E  E  E  E E    E  E E  E  E E  E  E
|------------------------|-----------------------|
|------------------------|-----------------------|
|------------------------|-----------------------|
|-10-10----10-10--x--9-9-|-----9-9-----9-9-12-12-|
|--7--7-----7--7--x--7-7-|-----7-7-----7-7--7--7-|
|--7--7-----7--7--x--7-7-|-----7-7-----7-7--7--7-|
|
|  PM------|                                PM----
|  E  E  E  E  E  E  E E    E  E E  E  E E  E  E
|------------------------|-----------------------|
|-----8--------8-------8-|-10----8-------8-------|
|-11----11-11----11-11---|----11---11-11---11-11-|
|------------------------|-----------------------|
|------------------------|-----------------------|
|------------------------|-----------------------|


                    Bm
   E  E  E  E  E  E  E  E    E  E  E E  E  E  E  E
|-------------------------|-------------------------|
|-------------------------|-------------------------|
|-------------------------|-------------------------|
|-10-10----10-10----12-12-|----12-12---12-12-12-12--|
|-10-10----10-10-----9--9-|-----9--9----9--9--9--9--|
|-10-10----10-10-----9--9-|-----9--9----9--9--9--9--|
|
|-|      PM|
|  E  E  E  E  E  E  E  E    E  E  E E  E  E  E  E
|-------------------------|-------12------12--------|
|-----8--------8--------8-|-10-------8--------8-----|
|-11----11-11----11-11----|----11------11-------11--|
|-------------------------|-------------------------|
|-------------------------|-------------------------|
|-------------------------|-------------------------|


    Csus2
  E  E  E E  E  E  E  E   E  E  E E  E  E  E  E
|-----------------------|-----------------------|
|-----------------------|-----------------------|
|-----------------------|-----------------------|
|---12-12---12-12-12-12-|---12-12---12-12-12-12-|
|---10-10---10-10-10-10-|---10-10---10-10-10-10-|
|---10-10---10-10-10-10-|---10-10---10-10-10-10-|
|
| E  E  E E  E  E  E  E   E  E  E E  E  E  E  E
|-----------------------|----5--5----5--5--5--5-|
|----5--5----5--5-----5-|----5--5----5--5--5--5-|
|-7-------7--------7--7-|----7--7----7--7--7--7-|
|-----------------------|-----------------------|
|-----------------------|-----------------------|
|-----------------------|-----------------------|


  E  E  E E  E  E  E  E    +E   H..
|-----------------------|--------------*|
|-----------------------|--------------*|
|-----------------------|--------------*|
|---12-12---12-12-12-12-|-(12)\--------*|
|---10-10---10-10-10-10-|-(10)\--------*|
|---10-10---10-10-10-10-|-(10)\--------*|
|
| E  E  E E  E  E  E  E    +E   H..
|----7--7----7--7--7--7-|--(7)\--------*|
|----5--5----5--5--5--5-|--(5)\--------*|
|----7--7----7--7--7--7-|--(7)\--------*|
|-----------------------|--------------*|
|-----------------------|--------------*|
|-----------------------|--------------*|


Duration Legend
---------------
W - whole; H - half; Q - quarter; E - 8th; S - 16th; T - 32nd; X - 64th; a - acciaccatura
+ - note tied to previous; . - note dotted; .. - note double dotted
Uncapitalized letters represent notes that are staccato (1/2 duration)
Irregular groupings are notated above the duration line
Duration letters will always appear directly above the note/fret number it represents the
duration for.  Duration letters with no fret number below them represent rests.  Multi-
bar rests are notated in the form Wxn, where n is the number of bars to rest for.  Low
melody durations appear below the staff

Tablature Legend
----------------
 h   - hammer-on
 p   - pull-off
 b   - bend
 pb  - pre-bend
 r   - bend release (if no number after the r, then release immediately)
 /\  - slide into or out of (from/to "nowhere")
 s   - legato slide
 S   - shift slide
  - natural harmonic
[n]  - artificial harmonic
n(n) - tapped harmonic
 ~   - vibrato
 tr  - trill
 T   - tap
 TP  - trem. picking
 PM  - palm muting
\n/  - tremolo bar dip; n = amount to dip
 \n  - tremolo bar down
 n/  - tremolo bar up
/n\  - tremolo bar inverted dip
 =   - hold bend; also acts as connecting device for hammers/pulls
 <>  - volume swell (louder/softer)
 x   - on rhythm slash represents muted slash
 o   - on rhythm slash represents single note slash

Misc Legend
-----------
 |  - bar
||  - double bar
||o - repeat start
o|| - repeat end
*|  - double bar (ending)
 :  - bar (freetime)
 $  - Segno
 &  - Coda
Tempo markers -  = BPM(8/16=s8/s16), where s8 = swing 8ths, s16 = swing 16ths


4 comments total. Showing first comments.
+2 reply
coheedguitarist wrote on May 18 2007, 01:41 pm

This is a Cobalt and Calcium tab. Thanks for posting something original :D

0 reply
atreyukicksass wrote on August 3 2007, 08:11 pm

lol i was gonna say "isnt this from Cobalt?"

0 reply
osmark90 wrote on November 14 2007, 12:53 pm

who gives a flying ****? thx dude!

I want to post or [tab]
guest
You may want to rate the tab now too:
select rating
Please do not post tabs as comments. Select "correction" instead!