Oops, an error
Loading. Please wait.

Mother Superior Acoustic Tab

ver2
ver2

Whole song

More versions @911Tabs.com
10,336 views 9 this week
no commentswrite comment
1 2 3 4 5
excellent!
x 3
add to favorites launch autoscroll
font size
0
reset
Autoscroll
+/-
esc
set tempo
stop
Contributor
Difficulty
advanced
WARNING: You are trying to view
                                    content from Ultimate-Guitar.com
                                    in an unauthorized application,
                                    which is prohibited.

                                    Please use an official Ultimate
                                    Guitar Tabs application for iPhone,
                                    iPad or Android to access legitimate
                                    chords, guitar, bass, and drum tabs
                                    from Ultimate-Guitar.com database.

                                    Type "ultimate guitar tabs" in Apple
                                    App Store's or Android Market's
                                    search to find the application.
Gtr I (E A D G B D) - 'Claudio'
Gtr II (E A D G B E) - 'Travis'


 Intro (Claudio)
  Q=135
  (Dm)                       (F)
 3/4
  Gtr I
|-------------|------------|------------|--------------|
|-------------|------------|------------|--------------|
|-------0-----|------------|--------0---|--------------|
|-----3---3---|-----7------|-----7----7-|----10--/12\--|
|-3h5-------5-|-/5-----8-7-|-7h8--------|-8------------|
|-------------|------------|------------|--------------|


  (C)                    (Bb)
             ~~~~~
|----------|-----------|----------|----------
|----------|-----------|----------|----------
|----------|-----------|-------0--|----------
|-------2--|-3--2--0---|----3-----|----------
|-3--5-----|---------3-|-1--------|-1--0-----
|----------|-----------|----------|-------3--


 Intro with Travis
  (Dm)                              (F)
|-------------------|-------------|-------------|------------------|
|-------------------|-------------|-------------|------------------|
|---------0---------|-------------|---------0---|------------------|
|------3-----3------|------7------|-----7-----7-|------10---/12\---|
|-3h5------------5--|--5------8-7-|-7h8---------|--8---------------|
|-------------------|-------------|-------------|------------------|
|
| Gtr II
|-----------(1)-----|-(1)---------|-------------|--1----3-----5----|
|-6S3-----3-(3)-----|--3----------|---1-----1---|------------------|
|-7S2-----2-(2)--2--|--2----------|-----2-------|------------------|
|-----(0)-------(0)-|---------0h2-|-3-----3---0-|-(3)--(3)---(5)---|
|-------------------|-------------|-------------|------------------|
|-------------------|-------------|-------------|------------------|


  (C)                     (Bb)
              ~~~~~
|-----------|-----------|------------|--------------||
|-----------|-----------|------------|--------------||
|-----------|-----------|--------0---|--------------||
|--------2--|-3--2--0---|----3-------|--------------||
|-3--5------|---------3-|-1----------|-1---0--------||
|-----------|-----------|------------|--------3-----||
|
|-3------3--|-3--1--0---|------------|--------------||
|-----------|-----------|-3------3---|-3-1----------||
|------0----|-----------|----------3-|-----3--2-(0)-||
|----2------|-----------|----3---3---|--------------||
|-----------|-----------|-1----1-----|--------------||
|-----------|-----------|------------|--------------||


   Verse
    (Dm)                              (F)
||--------------------|-------------|-------------|-----------------|
||o-------------------|-------------|-------------|-----------------|
||----------0---------|-------------|---------0---|-----------------|
||-------3-----3------|------7------|-----7-----7-|------10---/12\--|
||o-3h5------------5--|--5------8-7-|-7h8---------|--8--------------|
||--------------------|-------------|-------------|-----------------|
|
||------------(1)-----|-(1)---------|-------------|--1----3-----5---|
||o-6S3-----3-(3)-----|--3----------|---1-----1---|-----------------|
||--7S2-----2-(2)--2--|--2----------|-----2-------|-----------------|
||------(0)-------(0)-|---------0h2-|-3-----3---0-|-(3)--(3)---(5)--|
||o-------------------|-------------|-------------|-----------------|
||--------------------|-------------|-------------|-----------------|


  (C)                     (Bb)
                                                     4x
|-----------|-----------|------------|---------------||
|-----------|-----------|------------|--------------o||
|-----------|-----------|--------0---|---------------||
|--------2--|-3--2--0---|----3-------|---------------||
|-3--5------|---------3-|-1----------|-1---0--------o||
|-----------|-----------|------------|--------3------||
|
|                                                    4x
|-3------3--|-3--1--0---|------------|---------------||
|-----------|-----------|-3------3---|-3-1----------o||
|------0----|-----------|----------3-|-----3--2-(0)--||
|----2------|-----------|----3---3---|---------------||
|-----------|-----------|-1----1-----|--------------o||
|-----------|-----------|------------|---------------||


   Pre-Chorus
    $
    Dm
||--^3----------------|--3----------------|
||o-^3----------------|--3----------------|
||--^2----------------|--2----------------|
||--^3----------------|--3----------------|
||o-------------------|-------------------|
||--------------------|-------------------|
|
||--------------------|-------------------|
||o-------------------|-------------------|
||-----------10-------|-10-------10-------|
||-----10-12----12----|----12-------12----|
||o-12-------------12-|-------12-------12-|
||--------------------|-------------------|


    Fm6
|-3--0-(0)---------|-(0)---------------|
|-3--3-(3)---------|-(3)---------------|
|-2--1-(1)---------|-(1)---------------|
|-3--3-(3)---------|-(3)---------------|
|------------------|-------------------|
|------------------|-------------------|
|
|------------------|-------------------|
|-9--------9-------|--9--------9-------|
|---10-------10----|-----10------10----|
|------12-------12-|--------12------12-|
|------------------|-------------------|
|------------------|-------------------|


  Bb5                                        C5
|-------------------|-------------------|-------------------|----------------||
|-------------------|-------------------|-------------------|---------------o||
|--3----------------|--3-----------3----|--3S=5-(5)---------|-5--------------||
|--3----------------|--3-----------3----|--3S=5-(5)---------|-5--------------||
|--1----------------|--1-----------1----|--1S=3-(3)---------|-3-------------o||
|-------------------|-------------------|-------------------|----------------||
|
|-------------------|-------------------|-------------------|----------------||
|-------------------|-------------------|-------------------|-8------8------o||
|-10-------10-------|-10-------10-------|-------10--12-9----|---9------9-----||
|----12-------12----|----12-------12----|-10-12----------10-|-----10-----10--||
|-------13-------13-|-------13-------13-|-------------------|---------------o||
|-------------------|-------------------|-------------------|----------------||


   Chorus
    F5                            D5
    PM----------------------------------------------------|
||--------------|---------------|-------------|------------|
||o-------------|---------------|-------------|------------|
||--------------|---------------|-7-7-7-7-7-7-|-7-7-7-7-7-7|
||--3-3-3-3-3-3-|--3--3-3-3-3-3-|-7-7-7-7-7-7-|-7-7-7-7-7-7|
||o-3-3-3-3-3-3-|--3--3-3-3-3-3-|-5-5-5-5-5-5-|-5-5-5-5-5-5|
||--1-1-1-1-1-1-|--1--1-1-1-1-1-|-------------|------------|
|
||--------------|-(3)-----------|-------1-----|-1-----1----|
||o-------1-----|--1------1-----|-----3---3---|---3-----3--|
||--2---2---2---|-----2-----2---|---2-------2-|-----2-----2|
||----3-------3-|-------3-----3-|-3-----------|------------|
||o-------------|---------------|-------------|------------|
||--------------|---------------|-------------|------------|


  A5                          C5
  PM--------------------------------------------------|
|-------------|-------------|-------------|--------------||
|-------------|-------------|-------------|-------------o||
|-------------|-------------|-5-5-5-5-5-5-|-5-5-5-5-5-5--||
|-7-7-7-7-7-7-|-7-7-7-7-7-7-|-5-5-5-5-5-5-|-5-5-5-5-5-5--||
|-7-7-7-7-7-7-|-7-7-7-7-7-7-|-3-3-3-3-3-3-|-3-3-3-3-3-3-o||
|-5-5-5-5-5-5-|-5-5-5-5-5-5-|-------------|--------------||
|
|-------------|-------------|-------------|--------------||
|-------1-----|-1-----1-----|-1-----1-----|-1-----1-----o||
|-2---2---2---|---2-----2---|---2-----2---|---2-----2----||
|---2-------2-|-----2-----2-|-----2-----2-|-----2-----2--||
|-------------|-------------|-------------|-------------o||
|-------------|-------------|-------------|--------------||


 Chorus(con't)/Bridge
  F5                  D5
|--------|----------|------------|------------|
|--------|----------|------------|------------|
|--------|----------|-7--7-7-7-7-|-7--7-7-7-7-|
|-3------|-3----3-3-|-7--7-7-7-7-|-7--7-7-7-7-|
|-3------|-3----3-3-|-5--5-5-5-5-|-5--5-5-5-5-|
|-1------|-1----1-1-|------------|------------|
|
|--------|----------|------------|------------|
|--------|----------|------------|------------|
|--------|----------|-7--7-7-7-7-|-7--7-7-7-7-|
|-3------|-3----3-3-|-7--7-7-7-7-|-7--7-7-7-7-|
|-3------|-3----3-3-|-5--5-5-5-5-|-5--5-5-5-5-|
|-1------|-1----1-1-|------------|------------|


    Bbsus2                                        Dm
||-----------------------|----------------------|------------|------------|
||o----------------------|----------------------|------------|------------|
||---3----3---3---3---3--|--3----3---3---3---3--|-7--7-7-7-7-|-7--7-7-7-7-|
||---3----3---3---3---3--|--3----3---3---3---3--|-7--7-7-7-7-|-7--7-7-7-7-|
||o--1----1---1---1---1--|--1----1---1---1---1--|-5--5-5-5-5-|-5--5-5-5-5-|
||-----------------------|----------------------|------------|------------|
|
||--(1)--(1)-(1)-(1)-(1)-|-(1)--(1)-(1)-(1)-(1)-|-1--1-1-1-1-|-1--1-1-1-1-|
||o--1----1---1---1---1--|--1----1---1---1---1--|-3--3-3-3-3-|-3--3-3-3-3-|
||---3----3---3---3---3--|--3----3---3---3---3--|-2--2-2-2-2-|-2--2-2-2-2-|
||---3----3---3---3---3--|--3----3---3---3---3--|-0--0-0-0-0-|-0--0-0-0-0-|
||o----------------------|----------------------|------------|------------|
||-----------------------|----------------------|------------|------------|


  1.
  Bb5                             C5
|------------|------------|---------------|--------------||
|------------|------------|---------------|-------------o||
|-3--3-3-3-3-|-3--3-3-3-3-|-3-(3)s5-5-5-5-|-5-5-5-5-5-5--||
|-3--3-3-3-3-|-3--3-3-3-3-|-3-(3)s5-5-5-5-|-5-5-5-5-5-5--||
|-1--1-1-1-1-|-1--1-1-1-1-|-1-(1)s3-3-3-3-|-3-3-3-3-3-3-o||
|------------|------------|---------------|--------------||
|
|------------|------------|---------------|--------------||
|------------|------------|---------------|-------------o||
|-3--3-3-3-3-|-3--3-3-3-3-|-3-(3)s5-5-5-5-|-5-5-5-5-5-5--||
|-3--3-3-3-3-|-3--3-3-3-3-|-3-(3)s5-5-5-5-|-5-5-5-5-5-5--||
|-1--1-1-1-1-|-1--1-1-1-1-|-1-(1)s3-3-3-3-|-3-3-3-3-3-3-o||
|------------|------------|---------------|--------------||


  2.
  Bb5
|------------|------------|------------|------------|
|------------|------------|------------|------------|
|-3--3-3-3-3-|-3--3-3-3-3-|-3--3-3-3-3-|-3--3-3-3-3-|
|-3--3-3-3-3-|-3--3-3-3-3-|-3--3-3-3-3-|-3--3-3-3-3-|
|-1--1-1-1-1-|-1--1-1-1-1-|-1--1-1-1-1-|-1--1-1-1-1-|
|------------|------------|------------|------------|
|
|------------|------------|------------|------------|
|------------|------------|------------|------------|
|-3--3-3-3-3-|-3--3-3-3-3-|-3--3-3-3-3-|-3--3-3-3-3-|
|-3--3-3-3-3-|-3--3-3-3-3-|-3--3-3-3-3-|-3--3-3-3-3-|
|-1--1-1-1-1-|-1--1-1-1-1-|-1--1-1-1-1-|-1--1-1-1-1-|
|------------|------------|------------|------------|


                                       To Coda
  C5
|---------------|-------------|--------|-------||
|---------------|-------------|--------|-------||
|-5--5--5-5-5-5-|-5-5-5-5-5-5-|-5------|-------||
|-5--5--5-5-5-5-|-5-5-5-5-5-5-|-5------|-------||
|-3--3--3-3-3-3-|-3-3-3-3-3-3-|-3------|-------||
|---------------|-------------|--------|-------||
|
|---------------|-------------|--------|-------||
|---------------|-------------|--------|-------||
|-3-(3)s5-5-5-5-|-5-5-5-5-5-5-|-5------|-------||
|-3-(3)s5-5-5-5-|-5-5-5-5-5-5-|-5------|-------||
|-1-(1)s3-3-3-3-|-3-3-3-3-3-3-|-3------|-------||
|---------------|-------------|--------|-------||


   Pre-Verse
    (Dm)                              (F)
||--------------------|-------------|-------------|-----------------|
||o-------------------|-------------|-------------|-----------------|
||----------0---------|-------------|---------0---|-----------------|
||-------3-----3------|------7------|-----7-----7-|------10---/12\--|
||o-3h5------------5--|--5------8-7-|-7h8---------|--8--------------|
||--------------------|-------------|-------------|-----------------|
|
||------------(1)-----|-(1)---------|-------------|--1----3-----5---|
||o-6S3-----3-(3)-----|--3----------|---1-----1---|-----------------|
||--7S2-----2-(2)--2--|--2----------|-----2-------|-----------------|
||------(0)-------(0)-|---------0h2-|-3-----3---0-|-(3)--(3)---(5)--|
||o-------------------|-------------|-------------|-----------------|
||--------------------|-------------|-------------|-----------------|


  (C)                     (Bb)
|-----------|-----------|------------|---------------||
|-----------|-----------|------------|--------------o||
|-----------|-----------|--------0---|---------------||
|--------2--|-3--2--0---|----3-------|---------------||
|-3--5------|---------3-|-1----------|-1---0--------o||
|-----------|-----------|------------|--------3------||
|
|-3------3--|-3--1--0---|------------|---------------||
|-----------|-----------|-3------3---|-3-1----------o||
|------0----|-----------|----------3-|-----3--2-(0)--||
|----2------|-----------|----3---3---|---------------||
|-----------|-----------|-1----1-----|--------------o||
|-----------|-----------|------------|---------------||


   Verse
    (Dm)                              (F)
||--------------------|-------------|-------------|-----------------|
||o-------------------|-------------|-------------|-----------------|
||----------0---------|-------------|---------0---|-----------------|
||-------3-----3------|------7------|-----7-----7-|------10---/12\--|
||o-3h5------------5--|--5------8-7-|-7h8---------|--8--------------|
||--------------------|-------------|-------------|-----------------|
|
||------------(1)-----|-(1)---------|-------------|--1----3-----5---|
||o-6S3-----3-(3)-----|--3----------|---1-----1---|-----------------|
||--7S2-----2-(2)--2--|--2----------|-----2-------|-----------------|
||------(0)-------(0)-|---------0h2-|-3-----3---0-|-(3)--(3)---(5)--|
||o-------------------|-------------|-------------|-----------------|
||--------------------|-------------|-------------|-----------------|


                                    D.S. al Coda
  (C)                     (Bb)
                                                     4x
|-----------|-----------|------------|---------------||
|-----------|-----------|------------|--------------o||
|-----------|-----------|--------0---|---------------||
|--------2--|-3--2--0---|----3-------|---------------||
|-3--5------|---------3-|-1----------|-1---0--------o||
|-----------|-----------|------------|--------3------||
|
|                                                    4x
|-3------3--|-3--1--0---|------------|---------------||
|-----------|-----------|-3------3---|-3-1----------o||
|------0----|-----------|----------3-|-----3--2-(0)--||
|----2------|-----------|----3---3---|---------------||
|-----------|-----------|-1----1-----|--------------o||
|-----------|-----------|------------|---------------||


   Outro
    &
    Bb5                                 G5
||--------------------|---------------|----------------|---------------|
||o-------------------|---------------|----------------|---------------|
||--------------------|---------------|----------------|---------------|
||--8-------8-(8)--8--|--8----8-(8)-8-|--5-----5-(5)-5-|-5-----5-(5)-5-|
||o-8-------8-(8)--8--|--8----8-(8)-8-|--5-----5-(5)-5-|-5-----5-(5)-5-|
||--6-------6-(6)--6--|--6----6-(6)-6-|--3-----3-(3)-3-|-3-----3-(3)-3-|
|
||------------(1)-----|-(1)-----------|----5-----------|---------------|
||o-6S3-----3-(3)-----|--3------------|-/3---3----3----|-6p3-----------|
||--7S2-----2-(2)--2--|--2------------|----------------|-----3----2----|
||------(0)-------(0)-|---------------|----------------|---------------|
||o-------------------|---------------|----------------|---------------|
||--------------------|---------------|----------------|---------------|


  Bb5                                 G5
|-------------------|---------------|----------------|---------------|
|-------------------|---------------|----------------|---------------|
|-------------------|---------------|----------------|---------------|
|-8-------8-(8)--8--|--8----8-(8)-8-|--5-----5-(5)-5-|-5-----5-(5)-5-|
|-8-------8-(8)--8--|--8----8-(8)-8-|--5-----5-(5)-5-|-5-----5-(5)-5-|
|-6-------6-(6)--6--|--6----6-(6)-6-|--3-----3-(3)-3-|-3-----3-(3)-3-|
|
|-----------(1)-----|-(1)-----------|----5-----------|---------------|
|-6S3-----3-(3)-----|--3------------|-/3---3----3----|-6p3-----------|
|-7S2-----2-(2)--2--|--2------------|----------------|-----3----2----|
|-----(0)-------(0)-|---------------|----------------|---------------|
|-------------------|---------------|----------------|---------------|
|-------------------|---------------|----------------|---------------|


  Bb5                                 G5
|-------------------|---------------|----------------|---------------|
|-------------------|---------------|----------------|---------------|
|-------------------|---------------|----------------|---------------|
|-8-------8-(8)--8--|--8----8-(8)-8-|--5-----5-(5)-5-|-5-----5-(5)-5-|
|-8-------8-(8)--8--|--8----8-(8)-8-|--5-----5-(5)-5-|-5-----5-(5)-5-|
|-6-------6-(6)--6--|--6----6-(6)-6-|--3-----3-(3)-3-|-3-----3-(3)-3-|
|
|-----------(1)-----|-(1)-----------|----5-----------|---------------|
|-6S3-----3-(3)-----|--3------------|-/3---3----3----|-6p3-----------|
|-7S2-----2-(2)--2--|--2------------|----------------|-----3----2----|
|-----(0)-------(0)-|---------------|----------------|---------------|
|-------------------|---------------|----------------|---------------|
|-------------------|---------------|----------------|---------------|


  F                               F/E
|---------------|---------------|---------------|-------------------||
|---------------|---------------|---------------|------------------o||
|-------2-(2)-2-|-------2-(2)-2-|-------2-(2)-2-|----------2-(2)-2--||
|-3-----3-(3)-3-|--3----3-(3)-3-|-3-----3-(3)-3-|-3--------3-(3)-3--||
|-3-----3-(3)-3-|--3----3-(3)-3-|-3-----3-(3)-3-|-3--------3-(3)-3-o||
|-1-----1-(1)-1-|--1----1-(1)-1-|-0-----0-(0)-0-|-0--------0-(0)-0--||
|
|---------------|---------------|---------------|-------------------||
|---------------|---------------|---------------|------------------o||
|-3p2---2-------|---------------|---------------|-------------------||
|-----5----5--3-|-/5--3----2----|-3p2---2-------|-0h2----0----------||
|---------------|---------------|-----5----5--3-|-------------3----o||
|---------------|---------------|---------------|-------------------||


  (Dm)
  Gtr I
|-^3--------|-(3)----*|
|-^3--------|-(3)----*|
|-^2--------|-(2)----*|
|-^3--------|-(3)----*|
|-----------|--------*|
|-----------|--------*|
|
| Gtr II
|-^1--------|-(1)----*|
|-^3--------|-(3)----*|
|-^2--------|-(2)----*|
|-^0--------|-(0)----*|
|-----------|--------*|
|-----------|--------*|

comments
We did not receive enough feedback on this tab! Please rate:
print report bad tab
1 2 3 4 5
I want to post or [tab]
guest
You may want to rate the tab now too:
select rating
Please do not post tabs as comments. Select "correction" instead!