Oops, an error
Loading. Please wait.

Neverender Tab

ver3
ver3

Whole song

Interactive

More versions @911Tabs.com
8,489 views 6 this week
1 commentread comment
1 2 3 4 5
accurate
x 3
Autoscroll
+/-
esc
set tempo
stop
Contributor
Difficulty
Tabbers playing skills
intermediate
advanced +
Hey! There's an official Ultimate Guitar app which is ideal
for learning songs when you're away from computer. Get the app
WARNING: You are trying to view
                                    content from Ultimate-Guitar.com
                                    in an unauthorized application,
                                    which is prohibited.

                                    Please use an official Ultimate
                                    Guitar Tabs application for iPhone,
                                    iPad or Android to access legitimate
                                    chords, guitar, bass, and drum tabs
                                    from Ultimate-Guitar.com database.

                                    Type "ultimate guitar tabs" in Apple
                                    App Store's or Android Market's
                                    search to find the application.
Tabbed by :By Francis(f_sario@yahoo.com)
          :LUcena SHC  
          :09283150081 

 
          C#5                  A5                   G#5                  F#5
     9 11 x x x x          5 7 x x x x          4 6 x x x x          2 4 x x x x

          Eb5                  E5                  F#m/A                  E
      x 6 8 x x x          x 7 9 x x x          x 0 4 x x x         0 11 x x x x

           A                  Asus2
     x 0 11 x x x          x 0 9 x x x

Gtr I (E A D G B E) - 'dist.'
Gtr II (E A D G B E) - 'dist.'
Gtr III (E A D G B E) - 'clean'
Gtr IV (E A D G B E) - 'clean'
Gtr V (E A D G B E) - 'dist.'

 Intro
  Fast Rock Q=80
  C#5     G#/A  F#m/A A5    F#G#5     C#5     G#/A  F#m/A G#5   F#G#5
 4/4
  Gtrs I, V
                                PM|                                 PM|
   S  S S S S S S S S S S S S S S S    S  S S S S S S S S S S S S S S S
|-----------------------------------|-----------------------------------|
|-----------------------------------|-----------------------------------|
|-----------------------------------|-----------------------------------|
|---------6-6---4-4-----------------|---------6-6---4-4-----------------|
|-11-11---0-0---0-0---7-7---4S6-6-6-|-11-11---0-0---0-0---7-7---4S6-6-6-|
|--9--9---------------5-5---2S4-4-4-|--9--9---------------5-5---2S4-4-4-|


    G#5A5    G#/A   F#m/A   A5      F#5G#5
                                           PM|
     S  S  S  S S S  S  S S  S  S S  S  S  S  S
||----------------------------------------------|
||o---------------------------------------------|
||----------------------------------------------|
||------------6-6----4--4-----------------------|
||o--6S=7-----0-0----0--0----7--7----4S=6--6--6-|
||---4S=5--------------------5--5----2S=4--4--4-|
|
|   Gtr II
|    S  S  S  S E    S  S S  S  S S  S  S  S  S
||----------------------------------------------|
||o---------------------------------------------|
||----------------------------------------------|
||--13-14-13-14-----18-18---21-21---18-19-18-18-|
||o---------------------------------------------|
||----------------------------------------------|


  G#5A5    G#/A   F#m/A   A5      F#5G#5
                                         PM|
   S  S  S  S S S  S  S S  S  S S  S  S  S  S
|----------------------------------------------||
|---------------------------------------------o||
|----------------------------------------------||
|-----------6-6----4--4------------------------||
|--6S=7-----0-0----0--0----7--7----4S=6--6--6-o||
|--4S=5--------------------5--5----2S=4--4--4--||
|
|  S  S  S  S E    S  S S  S  S S  S  S  S  S
|----------------------------------------------||
|---------------------------------------------o||
|----------------------------------------------||
|-13-14-13-14-----18-18---21-21---18-19-18-18--||
|---------------------------------------------o||
|----------------------------------------------||


  G#A5     C#5     D#E5  A5          F#5                 G#5       N.C.
                                     PM------------------------|
  S  S S    S  S S S S S S S S S S S T T   S S S S S S S S S S S S S S S S
|----------------------------------------|-------------------------4-5-4-0-|
|----------------------------------------|---------------------------------|
|----------------------------------------|---------------------------------|
|------------------8-9-------------------|---------------------------------|
|-6S=7-----11-11---6-7---7-7---7-7---4-4-|-4-4---4-4---4-6---6-6-----------|
|-4S=5------9--9---------5-5---5-5---2-2-|-2-2---2-2---2-4---4-4-----------|
|
| S  S H..                                 W
|----------------------------------------|---------------------------------|
|----------------------------------------|---------------------------------|
|----------------------------------------|---------------------------------|
|-x-14-----------------------------------|---------------------------------|
|----------------------------------------|---------------------------------|
|----------------------------------------|---------------------------------|


    C#5             D#E5  A5          F#5                 G#5       N.C.
                                      PM--------------------------|
     S  S S  S  S S S S S S S S S S S T T   S S S S S S S S S S S S S S S S
||----------------------------------------|-------------------------4-5-4-0---||
||o---------------------------------------|----------------------------------o||
||----------------------------------------|-----------------------------------||
||------------------8-9-------------------|-----------------------------------||
||o-11-11---11-11---6-7---7-7---7-7---4-4-|-4-4---4-4---4-6---6-6------------o||
||---9--9----9--9---------5-5---5-5---2-2-|-2-2---2-2---2-4---4-4-------------||


   Verse
    C#5                               G#/A
    PM--------------------------------------------------------------|
    S S S S S S S S S S S S S S S S   S S S S S S S S S S S S S S S S
||----------------------------------|---------------------------------|
||o---------------------------------|---------------------------------|
||----------------------------------|---------------------------------|
||--6-6-6-6-6-6-6-6-6-6-6-6-6-6-6-6-|-6-6-6-6-6-6-6-6-6-6-6-6-6-6-6-6-|
||o-4-4-4-4-4-4-4-4-4-4-4-4-4-4-4-4-|-0-0-0-0-0-0-0-0-0-0-0-0-0-0-0-0-|
||----------------------------------|---------------------------------|


  F#m/A                             A5              Amaj7 A5
  PM----------------------------|
  S S S S S S S S S S S S S S S S   S S S S S S S S S S S S S S S S
|---------------------------------|-----------------------------------||
|---------------------------------|----------------------------------o||
|---------------------------------|-----------------------------------||
|-4-4-4-4-4-4-4-4-4-4-4-4-4-4-4-4-|-----------------6-6---------------||
|-0-0-0-0-0-0-0-0-0-0-0-0-0-0-0-0-|-7-7---7-7---6-7-x-x---7-7---6-7--o||
|---------------------------------|-5-5---5-5---5-5-5-5---5-5---5-5---||


    C#5
    PM------------------------------------
    S  S S S  S S S S S S  S  S  S S S S
||---------------------------------------|
||o--------------------------------------|
||---------------------------------------|
||--6--6-6-6--6-6-6-6-6-6--6--6--6-6-6-6-|
||o-4--4-4-4--4-4-4-4-4-4--4--4--4-4-4-4-|
||---------------------------------------|
|
|   Gtr IV
|   E.     E.     Q       +S  E.     E
||---------------------------------------|
||o--------4------------------4----------|
||----------------4-------(4)--------4---|
||---------------------------------------|
||o-4------------------------------------|
||---------------------------------------|


  G#/A
 ------------------------------------|
  S  S S S  S S S S S S  S  S  S S S S
|--------------------------------------|
|--------------------------------------|
|--------------------------------------|
|-6--6-6-6--6-6-6-6-6-6--6--6--6-6-6-6-|
|-0--0-0-0--0-0-0-0-0-0--0--0--0-0-0-0-|
|--------------------------------------|
|
| E.     E.     Q       +S  E.     S S
|--------------------------------------|
|--------5------------------5------4-5-|
|---------------4-------(4)------------|
|--------------------------------------|
|--------------------------------------|
|--------------------------------------|


  F#m/A                                 A5                Amaj7  A5
  PM--------------------------------|
  S  S S S  S S S S S  S S S  S S S S   S  S S S  S S S S S  S S S S S S S
|-------------------------------------|--------------------------------------||
|-------------------------------------|-------------------------------------o||
|-------------------------------------|--------------------------------------||
|-4--4-4-4--4-4-4-4-4--4-4-4--4-4-4-4-|-------------------6--6---------------||
|-0--0-0-0--0-0-0-0-0--0-0-0--0-0-0-0-|-7--7---7--7---6-7-x--x---7-7---6-7--o||
|-------------------------------------|-5--5---5--5---5-5-5--5---5-5---5-5---||
|
| E.     E.     S S E.     E.     S S   E.     E.     S S E.     S E   S S
|-------------------------------------|--------------------------------------||
|-------------------------------------|--------------------------------4-5--o||
|-4------6------9---4------6------9---|-9------6------4---6------4-----------||
|-------------------------------------|--------------------------------------||
|-------------------------------------|-------------------------------------o||
|-------------------------------------|--------------------------------------||


   Chorus 1
    E5
    Gtr III
     PM-----------------------------------
     S S S S S S S S  S  S S  S  S S S S
||---------------------------------------|
||o--------------------------------------|
||---------------------------------------|
||---------------------------------------|
||o--2-2-2-2-2-2-2-2--2--2-2--2--2-2-2-2-|
||---0-0-0-0-0-0-0-0--0--0-0--0--0-0-0-0-|
|
|    H               +E.      E.     E
||--^7---------------(7)-----^5------4---|
||o-^9---------------(9)-----^5------5---|
||--^9---------------(9)-----^6------6---|
||---------------------------------------|
||o--------------------------------------|
||---------------------------------------|


  A5
 ------------------------------------|
   S  S S  S  S S  S S S S S S S S S S
|---------------------------------------|
|---------------------------------------|
|---------------------------------------|
|--2--2-2--2--2-2--2-2-2-2-2-2-2-2-2-2--|
|--0--0-0--0--0-0--0-0-0-0-0-0-0-0-0-0--|
|---------------------------------------|
|
|  E.      E.      H               S S
|-^5------^4----------------------------|
|-^5------^5------^5---------------5s7s=|
|-^6------^6------^6---------------6s8s=|
|-----------------^7---------------7s9s=|
|---------------------------------------|
|---------------------------------------|


                                      1.
  C#5                       E5        B5                 A5
  PM-------------------------------------------------------------------|
  S S S S S S S S S  S S S  S S S S    S  S S S  S S S S S S S S S S S S
|-----------------------------------|--------------------------------------||
|-----------------------------------|-------------------------------------o||
|-----------------------------------|--------------------------------------||
|-6-6-6-6-6-6-6-6-6--6-6-6--9-9-9-9-|--------------------------------------||
|-4-4-4-4-4-4-4-4-4--4-4-4--7-7-7-7-|--9--9-9-9--9-9-9-9-7-7-7-7-7-7-7-7--o||
|-----------------------------------|--7--7-7-7--7-7-7-7-5-5-5-5-5-5-5-5---||
|
| H               E.     E.     E      E.     E.     E   H
|-----------------------------------|--------------------------------------||
|-5---------------9------7------9---|-10------9------7--------------------o||
|-6---------------------------------|--------------------9-----------------||
|-7---------------------------------|--------------------------------------||
|-----------------------------------|-------------------------------------o||
|-----------------------------------|--------------------------------------||


                              Interlude
  2.
  A5                           G#A5  C#5     D#E5  A5          F#5
                      Gtrs I, V
   PM-------------|   TP                                       PM---
   S  S S S S S S  S  H        S S S  S  S S S S S S S S S S S T T
|---------------------------||-------------------------------------|
|---------------------------||-------------------------------------|
|---------------------------||-------------------------------------|
|---------------------------||---------------8-9-------------------|
|--7--7-7-7-7-7-7--7--x\----||-6S7---11-11---6-7---7-7---7-7---4-4-|
|--5--5-5-5-5-5-5--5--x\----||-4S5----9--9---------5-5---5-5---2-2-|
|
|  E.     Q       +S  H        W
|---------------------9-----||-------------------------------------|
|-10------9-------(9)-------||-------------------------------------|
|---------------------------||-------------------------------------|
|---------------------------||-------------------------------------|
|---------------------------||-------------------------------------|
|---------------------------||-------------------------------------|


                G#5       N.C.
 ---------------------|
  S S S S S S S S S S S S S S S S
|-------------------------4-5-4-0---||
|-----------------------------------||
|-----------------------------------||
|-----------------------------------||
|-4-4---4-4---4-6---6-6-------------||
|-2-2---2-2---2-4---4-4-------------||
|
| W
|-----------------------------------||
|-----------------------------------||
|-----------------------------------||
|-----------------------------------||
|-----------------------------------||
|-----------------------------------||


 Verse 2
  C#5                               G#/A
  PM----------------------------------------------------------------|
  S S S S S S S S S S S S S S S S   S   S S S S S S S S S S S S S S S
|---------------------------------|------------------------------------|
|---------------------------------|------------------------------------|
|---------------------------------|------------------------------------|
|-6-6-6-6-6-6-6-6-6-6-6-6-6-6-6-6-|-6---6-6-6-6-6-6-6-6-6-6-6-6-6-6-6--|
|-4-4-4-4-4-4-4-4-4-4-4-4-4-4-4-4-|-0---0-0-0-0-0-0-0-0-0-0-0-0-0-0-0--|
|---------------------------------|------------------------------------|
|
|                                                                 Gtr IV
| W                                 H..                           S S
|---------------------------------|------------------------------------|
|---------------------------------|-------------------------------4h5--|
|---------------------------------|------------------------------------|
|---------------------------------|------------------------------------|
|---------------------------------|------------------------------------|
|---------------------------------|------------------------------------|


  F#m/A                             A5              Amaj7 A5
  PM----------------------------|
  S S S S S S S S S S S S S S S S   S S S S S S S S S S S S S S S S
|---------------------------------|----------------------------------|
|---------------------------------|----------------------------------|
|---------------------------------|----------------------------------|
|-4-4-4-4-4-4-4-4-4-4-4-4-4-4-4-4-|-----------------6-6--------------|
|-0-0-0-0-0-0-0-0-0-0-0-0-0-0-0-0-|-7-7---7-7---6-7-x-x---7-7---6-7--|
|---------------------------------|-5-5---5-5---5-5-5-5---5-5---5-5--|
|
| Q       S S E   S S E   S S E     W
|---------------------------------|----------------------------------|
|---------4h5-----4h5-----4h5-----|----------------------------------|
|---------------------------------|----------------------------------|
|---------------------------------|----------------------------------|
|---------------------------------|----------------------------------|
|---------------------------------|----------------------------------|


  C#5                                    G#/A
  PM------------------------------------------------------------------------|
  S  S S S  S S S S S S  S  S  S S S S   S  S S S  S S S S S S  S  S  S S S S
|--------------------------------------|---------------------------------------|
|--------------------------------------|---------------------------------------|
|--------------------------------------|---------------------------------------|
|-6--6-6-6--6-6-6-6-6-6--6--6--6-6-6-6-|-6--6-6-6--6-6-6-6-6-6--6--6--6-6-6-6--|
|-4--4-4-4--4-4-4-4-4-4--4--4--4-4-4-4-|-0--0-0-0--0-0-0-0-0-0--0--0--0-0-0-0--|
|--------------------------------------|---------------------------------------|
|
| E.     E.     Q       +S  E.     E     E.     E.     Q       +S  E.     S S
|--------------------------------------|---------------------------------------|
|--------4------------------4----------|--------5------------------5------4-5--|
|---------------4-------(4)--------4---|---------------4-------(4)-------------|
|--------------------------------------|---------------------------------------|
|-4------------------------------------|---------------------------------------|
|--------------------------------------|---------------------------------------|


  F#m/A                                 A5                Amaj7  A5
  PM--------------------------------|
  S  S S S  S S S S S  S S S  S S S S   S  S S S  S S S S S  S S S S S S S
|-------------------------------------|-------------------------------------|
|-------------------------------------|-------------------------------------|
|-------------------------------------|-------------------------------------|
|-4--4-4-4--4-4-4-4-4--4-4-4--4-4-4-4-|-------------------6--6--------------|
|-0--0-0-0--0-0-0-0-0--0-0-0--0-0-0-0-|-7--7---7--7---6-7-x--x---7-7---6-7--|
|-------------------------------------|-5--5---5--5---5-5-5--5---5-5---5-5--|
|
| E.     E.     S S E.     E.     S S   E.     E.     S S E.     S E   S S
|-------------------------------------|-------------------------------------|
|-------------------------------------|--------------------------------4-5--|
|-4------6------9---4------6------9---|-9------6------4---6------4----------|
|-------------------------------------|-------------------------------------|
|-------------------------------------|-------------------------------------|
|-------------------------------------|-------------------------------------|


    C#5
    S  S S S  S S S S S S  S  S  S S S S
||---------------------------------------|
||o--------------------------------------|
||---------------------------------------|
||--6--6-6-6--6-6-6-6-6-6--6--6--6-6-6-6-|
||o-4--4-4-4--4-4-4-4-4-4--4--4--4-4-4-4-|
||---------------------------------------|
|
|   E.     E.     Q       +S  E.     E
||---------------------------------------|
||o--------4------------------4----------|
||----------------4-------(4)--------4---|
||---------------------------------------|
||o-4------------------------------------|
||---------------------------------------|


  G#/A
  S  S S S  S S S S S S  S  S  S S S S
|--------------------------------------|
|--------------------------------------|
|--------------------------------------|
|-6--6-6-6--6-6-6-6-6-6--6--6--6-6-6-6-|
|-0--0-0-0--0-0-0-0-0-0--0--0--0-0-0-0-|
|--------------------------------------|
|
| E.     E.     Q       +S  E.     S S
|--------------------------------------|
|--------5------------------5------4-5-|
|---------------4-------(4)------------|
|--------------------------------------|
|--------------------------------------|
|--------------------------------------|


  F#m/A                                 A5                Amaj7  A5
  S  S S S  S S S S S  S S S  S S S S   S  S S S  S S S S S  S S S S S S S
|-------------------------------------|--------------------------------------||
|-------------------------------------|-------------------------------------o||
|-------------------------------------|--------------------------------------||
|-4--4-4-4--4-4-4-4-4--4-4-4--4-4-4-4-|-------------------6--6---------------||
|-0--0-0-0--0-0-0-0-0--0-0-0--0-0-0-0-|-7--7---7--7---6-7-x--x---7-7---6-7--o||
|-------------------------------------|-5--5---5--5---5-5-5--5---5-5---5-5---||
|
| E.     E.     S S E.     E.     S S   E.     E.     S S E.     S E   S S
|-------------------------------------|--------------------------------------||
|-------------------------------------|--------------------------------4-5--o||
|-4------6------9---4------6------9---|-9------6------4---6------4-----------||
|-------------------------------------|--------------------------------------||
|-------------------------------------|-------------------------------------o||
|-------------------------------------|--------------------------------------||


   Chorus 2
    E5
    Gtr III
     PM-----------------------------------
     S S S S S S S S  S  S S  S  S S S S
||---------------------------------------|
||o--------------------------------------|
||---------------------------------------|
||---------------------------------------|
||o--2-2-2-2-2-2-2-2--2--2-2--2--2-2-2-2-|
||---0-0-0-0-0-0-0-0--0--0-0--0--0-0-0-0-|
|
|    H               +E.      E.     E
||--^7---------------(7)-----^5------4---|
||o-^9---------------(9)-----^5------5---|
||--^9---------------(9)-----^6------6---|
||---------------------------------------|
||o--------------------------------------|
||---------------------------------------|


  A5
 ------------------------------------|
   S  S S  S  S S  S S S S S S S S S S
|---------------------------------------|
|---------------------------------------|
|---------------------------------------|
|--2--2-2--2--2-2--2-2-2-2-2-2-2-2-2-2--|
|--0--0-0--0--0-0--0-0-0-0-0-0-0-0-0-0--|
|---------------------------------------|
|
|  E.      E.      H               S S
|-^5------^4----------------------------|
|-^5------^5------^5---------------5s7s=|
|-^6------^6------^6---------------6s8s=|
|-----------------^7---------------7s9s=|
|---------------------------------------|
|---------------------------------------|


                                      1.
  C#5                       E5        B5                 A5
  PM------------------------------------------------------------------------
  S S S S S S S S S  S S S  S S S S    S  S S S  S S S S S S S S S S S S
|-----------------------------------|-------------------------------------||
|-----------------------------------|------------------------------------o||
|-----------------------------------|-------------------------------------||
|-6-6-6-6-6-6-6-6-6--6-6-6--9-9-9-9-|-------------------------------------||
|-4-4-4-4-4-4-4-4-4--4-4-4--7-7-7-7-|--9--9-9-9--9-9-9-9-7-7-7-7-7-7-7-7-o||
|-----------------------------------|--7--7-7-7--7-7-7-7-5-5-5-5-5-5-5-5--||
|
| H               E.     E.     E      E.     E.     E   H
|-----------------------------------|-------------------------------------||
|-5---------------9------7------9---|-10------9------7-------------------o||
|-6---------------------------------|--------------------9----------------||
|-7---------------------------------|-------------------------------------||
|-----------------------------------|------------------------------------o||
|-----------------------------------|-------------------------------------||


  2.
 -----------------------------------|
   S  S S S S S S S S S S S S  S  S S
|----------------------------------------||
|----------------------------------------||
|----------------------------------------||
|----------------------------------------||
|--7--7-7-7-7-7-7-7-7-7-7-7-7--7--7-7----||
|--5--5-5-5-5-5-5-5-5-5-5-5-5--5--5-5----||
|
|  E.     E   H               +E.
|-------------9---------------(9)--------||
|-10------9------------------------------||
|----------------------------------------||
|----------------------------------------||
|----------------------------------------||
|----------------------------------------||


 Breakdown
  C#5                     E
  Gtrs I, V
   S  S  S  S  S  S  S  S  S  S  S  S  S  S  S  S
|-------------------------------------------------|
|-------------------------------------------------|
|-------------------------------------------------|
|-------------------------------------------------|
|-11-11-11-11-11-11-11-11-11-11-11-11-11-11-11-11-|
|--9--9--9--9--9--9--9--9--0--0--0--0--0--0--0--0-|


  A           Asus2   G#/A    A5
   S  S  S  S S S S S S S S S S S S S
|--------------------------------------|
|--------------------------------------|
|--------------------------------------|
|-11-11-11-11-9-9-9-9-6-6-6-6-2-2-2-2--|
|--0--0--0--0-0-0-0-0-0-0-0-0-0-0-0-0--|
|--------------------------------------|


    C#5                           E
     S  S  S     S     S  S  S  S  S  S  S     S     S  S  S  S
||--------------------------------------------------------------|
||o-------------------------------------------------------------|
||--------------------------------------------------------------|
||--------------------------------------------------------------|
||o-11-11-11----11----11-11-11-11-11-11-11----11----11-11-11-11-|
||---9--9--9-----9-----9--9--9--9--0--0--0-----0-----0--0--0--0-|
|
|   Gtr II
|          |---3----|                    |---3----|
|    E     S  S     S  E     E     E     S  S     S  E     E
||--------------------------------------------------------------|
||o-------------------16----17----------------------17----16----|
||--------------------------------------------------------------|
||--------18h19p===18-------------------18h19p===18-------------|
||o-------------------------------------------------------------|
||--------------------------------------------------------------|


  A           Asus2       G#/A        A5
   S  S  S  S  S  S  S  S  S  S  S  S S S S S  3x
|----------------------------------------------||
|---------------------------------------------o||
|----------------------------------------------||
|-11-11-11-11--9--9--9--9--6--6--6--6-2-2-2-2--||
|--0--0--0--0--0--0--0--0--0--0--0--0-0-0-0-0-o||
|----------------------------------------------||
|
|  S  S  S  S  S  S  S  S  S  S  S  S S S S S  3x
|----------------------------------------------||
|---------------------------------------------o||
|-18-18-18-18-16-16-16-16-13-13-13-13-9-9-9-9--||
|----------------------------------------------||
|---------------------------------------------o||
|----------------------------------------------||


 Interlude
  C#5     G#/A  F#m/A A5    F#G#5     C#5     G#/A  F#m/A A5    F#G#5
                                PM|                                 PM|
   S  S S S S S S S S S S S S S S S    S  S S S S S S S S S S S S S S S
|-----------------------------------|------------------------------------|
|-----------------------------------|------------------------------------|
|-----------------------------------|------------------------------------|
|---------6-6---4-4-----------------|---------6-6---4-4------------------|
|-11-11---0-0---0-0---7-7---4S6-6-6-|-11-11---0-0---0-0---7-7---4S6-6-6--|
|--9--9---------------5-5---2S4-4-4-|--9--9---------------5-5---2S4-4-4--|


    G#5A5    G#/A   F#m/A   A5      F#5G#5
                                           PM|
     S  S  S  S S S  S  S S  S  S S  S  S  S  S
||----------------------------------------------|
||o---------------------------------------------|
||----------------------------------------------|
||------------6-6----4--4-----------------------|
||o--6S=7-----0-0----0--0----7--7----4S=6--6--6-|
||---4S=5--------------------5--5----2S=4--4--4-|
|
|   Gtr II
|    S  S  S  S E    S  S S  S  S S  S  S  S  S
||----------------------------------------------|
||o---------------------------------------------|
||----------------------------------------------|
||--13-14-13-14-----18-18---21-21---18-19-18-18-|
||o---------------------------------------------|
||----------------------------------------------|


     A5    G#/A   F#m/A   A5      F#5G#5
                                         PM|
   S  S  S  S S S  S  S S  S  S S  S  S  S  S
|----------------------------------------------||
|---------------------------------------------o||
|----------------------------------------------||
|-----------6-6----4--4------------------------||
|--6S=7-----0-0----0--0----7--7----4S=6--6--6-o||
|--4S=5--------------------5--5----2S=4--4--4--||
|
|  S  S  S  S E    S  S S  S  S S  S  S  S  S
|----------------------------------------------||
|---------------------------------------------o||
|----------------------------------------------||
|-13-14-13-14-----18-18---21-21---18-19-18-18--||
|---------------------------------------------o||
|----------------------------------------------||


  G#5A5    C#5      D#E5  A5          F#5                 G#5       N.C.
                                      PM------------------------|
   S  S  S  S  S  S S S S S S S S S S T T   S S S S S S S S S S S S S S S S
|-----------------------------------------|-------------------------4-5-4-0-|
|-----------------------------------------|---------------------------------|
|-----------------------------------------|---------------------------------|
|-------------------8-9-------------------|---------------------------------|
|--6S=7----11-11----6-7---7-7---7-7---4-4-|-4-4---4-4---4-6---6-6-----------|
|--4S=5-----9--9----------5-5---5-5---2-2-|-2-2---2-2---2-4---4-4-----------|
|
|  S  S  S  S  H.                           W
|-----------------------------------------|---------------------------------|
|-----------------------------------------|---------------------------------|
|-----------------------------------------|---------------------------------|
|-13-14-13-14-----------------------------|---------------------------------|
|-----------------------------------------|---------------------------------|
|-----------------------------------------|---------------------------------|


    C#5             D#E5  A5          F#5                 G#5       N.C.
                                      PM------------------------|
     S  S S  S  S S S S S S S S S S S T T   S S S S S S S S S S S S S S S S   3x
||----------------------------------------|-------------------------4-5-4-0---||
||o---------------------------------------|----------------------------------o||
||----------------------------------------|-----------------------------------||
||------------------8-9-------------------|-----------------------------------||
||o-11-11---11-11---6-7---7-7---7-7---4-4-|-4-4---4-4---4-6---6-6------------o||
||---9--9----9--9---------5-5---5-5---2-2-|-2-2---2-2---2-4---4-4-------------||


   Chorus 3
    E5
    Gtr III
     PM-----------------------------------
     S S S S S S S S  S  S S  S  S S S S
||---------------------------------------|
||o--------------------------------------|
||---------------------------------------|
||---------------------------------------|
||o--2-2-2-2-2-2-2-2--2--2-2--2--2-2-2-2-|
||---0-0-0-0-0-0-0-0--0--0-0--0--0-0-0-0-|
|
|   Gtr IV
|    H               +E.      E.     E
||--^7---------------(7)-----^5------4---|
||o-^9---------------(9)-----^5------5---|
||--^9---------------(9)-----^6------6---|
||---------------------------------------|
||o--------------------------------------|
||---------------------------------------|


  A5
 ------------------------------------|
   S  S S  S  S S  S S S S S S S S S S
|---------------------------------------|
|---------------------------------------|
|---------------------------------------|
|--2--2-2--2--2-2--2-2-2-2-2-2-2-2-2-2--|
|--0--0-0--0--0-0--0-0-0-0-0-0-0-0-0-0--|
|---------------------------------------|
|
|  E.      E.      H               S S
|-^5------^4----------------------------|
|-^5------^5------^5---------------5s7s=|
|-^6------^6------^6---------------6s8s=|
|-----------------^7---------------7s9s=|
|---------------------------------------|
|---------------------------------------|


                                      1.
  C#5                       E5        B5                 A5
  PM------------------------------------------------------------------------
  S S S S S S S S S  S S S  S S S S    S  S S S  S S S S S S S S S S S S
|-----------------------------------|-------------------------------------||
|-----------------------------------|------------------------------------o||
|-----------------------------------|-------------------------------------||
|-6-6-6-6-6-6-6-6-6--6-6-6--9-9-9-9-|-------------------------------------||
|-4-4-4-4-4-4-4-4-4--4-4-4--7-7-7-7-|--9--9-9-9--9-9-9-9-7-7-7-7-7-7-7-7-o||
|-----------------------------------|--7--7-7-7--7-7-7-7-5-5-5-5-5-5-5-5--||
|
| H               E.     E.     E      E.     E.     E   H
|-----------------------------------|-------------------------------------||
|-5---------------9------7------9---|-10------9------7-------------------o||
|-6---------------------------------|--------------------9----------------||
|-7---------------------------------|-------------------------------------||
|-----------------------------------|------------------------------------o||
|-----------------------------------|-------------------------------------||


  2.
 ------------------------------------|
   S  S S S  S S  S  S S S S S S S S S
|-----------------------------------------||
|-----------------------------------------||
|-----------------------------------------||
|-----------------------------------------||
|--7--7-7-7--7-7--7--7-7-7-7-7-7-7-7-7----||
|--5--5-5-5--5-5--5--5-5-5-5-5-5-5-5-5----||
|
|  E.     E.     +E    H
|----------------------9------------------||
|-10------9------(9)----------------------||
|-----------------------------------------||
|-----------------------------------------||
|-----------------------------------------||
|-----------------------------------------||


   Outro
    C#5                           E
    Gtrs I, V
     S  S  S     S     S  S  S  S  S  S  S     S     S  S  S  S
||--------------------------------------------------------------|
||o-------------------------------------------------------------|
||--------------------------------------------------------------|
||--------------------------------------------------------------|
||o-11-11-11----11----11-11-11-11-11-11-11----11----11-11-11-11-|
||---9--9--9-----9-----9--9--9--9--0--0--0-----0-----0--0--0--0-|
|
|         Gtr II
|          |---3----|                    |---3----|
|    E     S  S     S  E     E     E     S  S     S  E     E
||--------------------------------------------------------------|
||o-------------------16----17----------------------17----16----|
||--------------------------------------------------------------|
||--------18h19p===18-------------------18h19p===18-------------|
||o-------------------------------------------------------------|
||--------------------------------------------------------------|


  A           Asus2       G#/A        A5
   S  S  S  S  S  S  S  S  S  S  S  S S S S S  6x
|----------------------------------------------||
|---------------------------------------------o||
|----------------------------------------------||
|-11-11-11-11--9--9--9--9--6--6--6--6-2-2-2-2--||
|--0--0--0--0--0--0--0--0--0--0--0--0-0-0-0-0-o||
|----------------------------------------------||
|
|  S  S  S  S  S  S  S  S  S  S  S  S S S S S  6x
|----------------------------------------------||
|---------------------------------------------o||
|-18-18-18-18-16-16-16-16-13-13-13-13-9-9-9-9--||
|----------------------------------------------||
|---------------------------------------------o||
|----------------------------------------------||


  C#5               E
   E  E        Q     E  E        Q
|-------------------------------------|
|-------------------------------------|
|-------------------------------------|
|-------------------------------------|
|-11-11-------------11-11-------------|
|--9--9--------------0--0-------------|
|
|     |--3--|           |--3--|
|  E  S  S  S  E  E  E  S  S  S  E  E
|-------------------------------------|
|-------------16-17-------------17-16-|
|-------------------------------------|
|----18h19p18----------18h19p18-------|
|-------------------------------------|
|-------------------------------------|


  A           Asus2       G#/A        A5
   S  S  S  S  S  S  S  S  S  S  S  S S S S S
|---------------------------------------------|
|---------------------------------------------|
|---------------------------------------------|
|-11-11-11-11--9--9--9--9--6--6--6--6-2-2-2-2-|
|--0--0--0--0--0--0--0--0--0--0--0--0-0-0-0-0-|
|---------------------------------------------|
|
|  S  S  S  S  S  S  S  S  S  S  S  S S S S S
|---------------------------------------------|
|---------------------------------------------|
|-18-18-18-18-16-16-16-16-13-13-13-13-9-9-9-9-|
|---------------------------------------------|
|---------------------------------------------|
|---------------------------------------------|


    C#5                           E
     S  S  S     S     S  S  S  S  S  S  S     S     S  S  S  S
||--------------------------------------------------------------|
||o-------------------------------------------------------------|
||--------------------------------------------------------------|
||--------------------------------------------------------------|
||o-11-11-11----11----11-11-11-11-11-11-11----11----11-11-11-11-|
||---9--9--9-----9-----9--9--9--9--0--0--0-----0-----0--0--0--0-|
|
|          |---3----|                    |---3----|
|    E     S  S     S  E     E     E     S  S     S  E     E
||--------------------------------------------------------------|
||o-------------------16----17----------------------17----16----|
||--------------------------------------------------------------|
||--------18h19p===18-------------------18h19p===18-------------|
||o-------------------------------------------------------------|
||--------------------------------------------------------------|


  A           Asus2       G#/A        A5
   S  S  S  S  S  S  S  S  S  S  S  S S S S S
|----------------------------------------------||
|---------------------------------------------o||
|----------------------------------------------||
|-11-11-11-11--9--9--9--9--6--6--6--6-2-2-2-2--||
|--0--0--0--0--0--0--0--0--0--0--0--0-0-0-0-0-o||
|----------------------------------------------||
|
|  S  S  S  S  S  S  S  S  S  S  S  S S S S S
|----------------------------------------------||
|---------------------------------------------o||
|-18-18-18-18-16-16-16-16-13-13-13-13-9-9-9-9--||
|----------------------------------------------||
|---------------------------------------------o||
|----------------------------------------------||


Duration Legend
---------------
W - whole; H - half; Q - quarter; E - 8th; S - 16th; T - 32nd; X - 64th; a - acciaccatura
+ - note tied to previous; . - note dotted; .. - note double dotted
Uncapitalized letters represent notes that are staccato (1/2 duration)
Irregular groupings are notated above the duration line
Duration letters will always appear directly above the note/fret number it represents the
duration for.  Duration letters with no fret number below them represent rests.  Multi-
bar rests are notated in the form Wxn, where n is the number of bars to rest for.  Low
melody durations appear below the staff

Tablature Legend
----------------
 h   - hammer-on
 p   - pull-off
 b   - bend
 pb  - pre-bend
 r   - bend release (if no number after the r, then release immediately)
 /\  - slide into or out of (from/to "nowhere")
 s   - legato slide
 S   - shift slide
<n>  - natural harmonic
[n]  - artificial harmonic
n(n) - tapped harmonic
 ~   - vibrato
 tr  - trill
 T   - tap
 TP  - trem. picking
 PM  - palm muting
\n/  - tremolo bar dip; n = amount to dip
 \n  - tremolo bar down
 n/  - tremolo bar up
/n\  - tremolo bar inverted dip
 =   - hold bend; also acts as connecting device for hammers/pulls
 <>  - volume swell (louder/softer)
 x   - on rhythm slash represents muted slash
 o   - on rhythm slash represents single note slash

Misc Legend
-----------
 |  - bar
||  - double bar
||o - repeat start
o|| - repeat end
*|  - double bar (ending)
 :  - bar (freetime)
 $  - Segno
 &  - Coda
Tempo markers - <E/E./Q/Q./H/H.> = BPM(8/16=s8/s16), where s8 = swing 8ths, s16 = swing 16ths
comments
We did not receive enough feedback on this tab! Please rate:
print report bad tab
1 2 3 4 5
1 comment total.
0 reply
smalRaptor wrote on October 21 2010, 04:20 am

Instead of doing the 9/11 on the E you can do a 4/6 on the A, it makes it easier to play when you're singing and playing.

I want to post or [tab]
guest
You may want to rate the tab now too:
select rating
Please do not post tabs as comments. Select "correction" instead!