Oops, an error
Loading. Please wait.

No World For Tomorrow Tab

ver3
ver3

Intro

Solo

Whole song

More versions @911Tabs.com
245 views 6 this week
no commentswrite comment
1 2 3 4 5
poor
x 1
add to favorites launch autoscroll
font size
0
reset
Autoscroll
+/-
esc
set tempo
stop
Contributor
Difficulty
intermediate
WARNING: You are trying to view
                                    content from Ultimate-Guitar.com
                                    in an unauthorized application,
                                    which is prohibited.

                                    Please use an official Ultimate
                                    Guitar Tabs application for iPhone,
                                    iPad or Android to access legitimate
                                    chords, guitar, bass, and drum tabs
                                    from Ultimate-Guitar.com database.

                                    Type "ultimate guitar tabs" in Apple
                                    App Store's or Android Market's
                                    search to find the application.
Coheed and Cambria - No World for Tomorow

I submitted this tab earlier, however, it has been a while
since i tabbed anything and all the lines were way to long.
I somehow didn't catch it before submitting either but here's a good one.
Please ignore the lines of *'s, their drunk, and they serve no purpose.


******************************************************************************
E|----------------------------------------------------------------------------|
B|----------------------------------------------------------------------------|
G|----------------------------------------------------------------------------|
D|-----------7---------5------------------------------------------------------|
A|--5--5--7-----8--5------5--5--7--5--0--0--5--x--x--7b-------5----5--7--8--5-|
E|--0------------------------------------------0--0--------------0------------|



E|------------------------------------|
B|------------------------------------|
G|------------------------------------|
D|----8--7-5-----------8--7-5---------|
A|-------------8--7-5----------8--7-5-|
E|------------------------------------|


******************************************************************************
E|------------------------------------------------------------------------|
B|------------------------------------------------------------------------|
G|------------------------------------------------------------------------|
D|-----------------------------------------------7--------5---------------|
A|-----------0--3-----0--3-----0--------5--5--7-----8--5-----5---5--7--5--|
E|--0--3--5--------5--------5-----5--3--0---------------------------------|



E|---------------------------------------------|
B|---------------------------------------------|
G|---------------------------------------------|
D|---------------------------------------------|
A|--0--0--5--x--x--7b---------5-----5--7--8--5-|
E|-----------0--0----------------0-------------|



E|-------------------------------------------------------------------------|
B|-------------------------------------------------------------------------|
G|-------------------------------------------------------------------------|
D|--8--7--5-----------8--7--5----------------------------------------------|
A|-----------8--7--5-----------8--7--5-----------0--3-----0--3-----0-------|
E|--------------------------------------0--3--5--------5--------5-----5--3-|

Verse (17)
******************************************************************************
E|------------------------------------------------------------------|
B|------------------------------------------------------------------|
G|------------------------------------------------------------------|
D|-----------7--------5---------------------------------------------|
A|--5--5--7-----8--5----5--5--7--5--0--0--5--x--x--7b-------5-----5-|
E|--0----------------------------------------0--0--------------0----|


******************************************************************************
E|---------------------------------------------------------------------------|
B|---------------------------------------------------------------------------|
G|---------------------------------------------------------------------------|
D|*--8--7--5-----------*-------------------------------------------7-------5-|
A|*-------------8--7--5*-----------0--3---0--3----0-----------8-------8--0---|
E|----------------------0--3--5-------5-------5----5--3--0-----0-------------|


******************************************************************************
E|---------------------------------------------------------------------------|
B|---------------------------------------------------------------------------|
G|--------------------------------------------------------10--9--7-----------|
D|------------------------------------------------------------------10--8--7-|
A|---8-----7--5-----5--x--x--7b----------5-------5--8--5---------------------|
E|-----0-------0-7----0--0-----------------0--0------------------------------|


E|---------------------------------------------------------|
B|---------------------------------------------------------|
G|--10--9--7-----------------------------------------------|
D|------------10--8--7-------------------------------------|
A|---------------------------------0--3-----0--3----0------|
E|------------------------0--3--5--------5--------5---5--3-|





Verse 2 (33)
******************************************************************************
E|--------------------------------------------------------------------------|
B|--------------------------------------------------------------------------|
G|-----------------------5---5-----------4-----4-------------------10--9--7-|
D|--------7---7-------------------------------------------------------------|
A|----8------------8---------------8-------------5--------5--8--5-----------|
E|--0---0---0----0----0----0----0-----0-----0-------0--0--------------------|


E|----------------------------------------------------------------------|
B|----------------------------------------------------------------------|
G|-------------10--9--7-------------------------------------------------|
D|--10--8--7-------------10--8--7---------------------------------------|
A|--------------------------------------------0--3-----0--3-----0-------|
E|-----------------------------------0--3--5--------5--------5-----5--3-|
******************************************************************************
E|-------------------------------------------------------------------|
B|-------------------------------------------------------------------|
G|--------------------------5-----5--------4-----4-------------------|
D|----------7----7---------------------------------------------------|
A|----8---------------8-----------------8-----------5--------5--8--5-|
E|--0----0----0----0-----0-----0-----0--------0--------0--0----------|

E|-------------------------------------------------------------|
B|-------------------------------------------------------------|
G|*--10--9--7-----------*--------------------------------------|
D|*-------------10--8--7*--------------------------------------|
A|----------------------------------0--3-----0--3-----0--------|
E|-------------------------0--3--5--------5--------5------5--3-|




Pre-Chorus (49)
******************************************************************************
E|-------------------------------------------------------------------------|
B|-------------------------------------------------------------------------|
G|-------------------------------------------------------------------------|
D|--0------------(0)---------------------8-------------(8)--10-------------|
A|--0------------(0)----10------12-------8-------------(8)-----------10----|
E|--0------------(0)---------------------8-------------(8)-----------------|



E|-------------------------------------------------|
B|-------------------------------------------------|
G|-------------------------------------------------|
D|-------------------------------------------------|
A|------8--7--5-----------0----8--7--5-----------0-|
E|---------------8--7--5--0-------------8--7--5--0-|


******************************************************************************
E|---------------------------------------------------------------------|
B|---------------------------------------------------------------------|
G|---------------------------------------------------------------------|
D|---------------------------------------------------------------------|
A|--0----0----0--8--7--5-----------0-----(0)--8--7--5-------8--7--5----|
E|--0----0----0-----------8--7--5--0-----(0)-----------7-------------7-|


Chorus (65)
******************************************************************************
E|-------------------------------------------------------------------|
B|*------------------------------------------------------------------|
G|-------------------------------------------------------------------|
D|--8--(8)----8---8----8---8----8---(8)----8---8----8---8----8-------|(8)
A|*-8--(8)----8---8----8---8----8---(8)----8---8----8---8----8-------|(8)
E|--8--(8)----8---8----8---8----8---(8)----8---8----8---8----8-------|(8)



E|---------------------------------------------|
B|---------------------------------------------|
G|---------------------------------------------|
D|------8---8----8---8---(8)----8---8----8---8-|
A|------8---8----8---8---(8)----8---8----8---8-|
E|------8---8----8---8---(8)----8---8----8---8-|

******************************************************************************
E|------------------------------------------------------------------------|
B|------------------------------------------------------------------------|
G|------------------------------------------------------------------------|
D|------------------------------------------------------------------------|
A|----0-0----0----0----0-0----0----0--8--7--0--8--7--0--8--7--0--8--7--0--|
E|----0-0----0----0----0-0----0----0--------------------------------------|


******************************************************************************
E|----------------13~-----12~---------------------------------|
B|-------------------------------11---------(11)---------(11--|
G|------------------------------------------------------------|
D|--10----(10)------------------------------------------------|
A|--10----(10)------------------------------------------------|
E|--10----(10)------------------------------------------------|



E|----------------------------------------------|
B|-------------10----(10)b----(10)--------------|
G|-----7----------------------------------------|
D|----------8------------------------10----(10--|
A|-----------------------------------10----(10--|
E|-----------------------------------10----(10--|



******************************************************************************
E|---------13~-----12~---------------------------------------------|
B|-------------------------11---------(11)--10--11--10--11--10--11-|
G|-----------------------------------------------------------------|
D|-----------------------------------------------------------------|
A|-----------------------------------------------------------------|
E|-----------------------------------------------------------------|



Pre-Verse (97)
******************************************************************************
E|----------------------------------------------------------------------|
B|*---------------------------------------------------------------------|
G|----------------------------------------------------------------------|
D|--7----(7)-------------(0)----7---------------------------------------|
A|*-7----(0)----0--------(0)----7----(0)----0--0--0----0----0----0----0-|
E|--7----(0)----0--------(0)----7----(0)----0--0--0----0----0----0----0-|


******************************************************************************
E|----------------------------------------------------------------------|
B|----------------------------------------------------------------------|
G|----------------------------------------------------------------------|    x2
D|----7----(7)---(0)-------(0)------------------------------------------|
A|----7----(0)----0--------(0)-----------0--3-----0--3-----0------------|
E|----7----(0)----0--------(0)--0--3--5--------5--------5-----5--3------|


Verse 3 (113)
******************************************************************************
E|------------------------------------------------------------|
B|------------------------------------------------------------|
G|------------------------------------------------------------|
D|-----------7---------5--------------------------------------|
A|--5--5--7-----8--5------5--5--7--5--0--0--5--x--x--7b-------|
E|--0------------------------------------------0--0-----------|


******************************************************************************
E|----------------------------------------------------|
B|----------------------------------------------------|
G|----------------------------------------------------|
D|--------------------8--7-5-----------8--7-5---------|
A|---5----5--7--8--5-----------8--7-5----------8--7-5-|
E|-----0----------------------------------------------|



******************************************************************************
E|-------------------------------------------------------------|
B|-------------------------------------------------------------|
G|-------------------------------------------------------------|
D|-----------------------------------------------7--------5----|
A|-----------0--3-----0--3-----0--------5--5--7-----8--5-----5-|
E|--0--3--5--------5--------5-----5--3--0----------------------|



E|---------------------------------------------------------|
B|---------------------------------------------------------|
G|---------------------------------------------------------|
D|---------------------------------------------------------|
A|-----5--7--5--0--0--5--x--x--7b---------5-----5--7--8--5-|
E|-----------------------0--0----------------0-------------|



******************************************************************************
E|-------------------------------------------------------------------------|
B|-------------------------------------------------------------------------|
G|-------------------------------------------------------------------------|
D|--8--7--5-----------8--7--5----------------------------------------------|
A|-----------8--7--5-----------8--7--5-----------0--3-----0--3-----0-------|
E|--------------------------------------0--3--5--------5--------5-----5--3-|


Verse 4 (129)
******************************************************************************
E|-------------------------------------------------------------------------|
B|-------------------------------------------------------------------------|
G|--------------------------5-----5--------4-----4-------------------------|
D|----------7----7---------------------------------------------------------|      x2
A|----8---------------8-----------------8-----------5--------5--8--5-------|
E|--0----0----0----0-----0-----0-----0----0---0--------0--0----------------|




E|---------------------------------------------------------------------|
B|---------------------------------------------------------------------|
G|------------10--9--7-------------------------------------------------|
D|--10--8--7-------------10--8--7--------------------------------------|
A|------------------------------------------0--3-----0--3-----0--------|
E|---------------------------------0--3--5--------5--------5------5--3-|



Pre-Chorus
******************************************************************************
E|---------------------------------------------------------|
B|---------------------------------------------------------|
G|---------------------------------------------------------|
D|--0------------(0)---------------------8-----------------|(8)
A|--0------------(0)----10------12-------8-----------------|(8)
E|--0------------(0)---------------------8-----------------|(8)


E|--------------------------------------------------------------------------|
B|--------------------------------------------------------------------------|
G|--------------------------------------------------------------------------|
D|--10----------------------------------------------------------------------|
A|-----------10------8--7--5-----------0------8--7--5-----------0----0----0-|
E|----------------------------8--7--5--0---------------8--7--5--0----0----0-|




E|--------------------------------------------------------|
B|--------------------------------------------------------|
G|--------------------------------------------------------|
D|--------------------------------------------------------|
A|--8--7--5-----------0-----(0)--8--7--5-------8--7--5----|
E|-----------8--7--5--0-----(0)-----------7-------------7-|


Chorus
******************************************************************************
E|-------------------------------------------------------------------|
B|*------------------------------------------------------------------|
G|-------------------------------------------------------------------|
D|--8--(8)----8---8----8---8----8---(8)----8---8----8---8----8-------|(8)
A|*-8--(8)----8---8----8---8----8---(8)----8---8----8---8----8-------|(8)
E|--8--(8)----8---8----8---8----8---(8)----8---8----8---8----8-------|(8)



E|---------------------------------------------------------------------------|
B|---------------------------------------------------------------------------|
G|---------------------------------------------------------------------------|
D|--8---8----8---8---(8)----8---8----8---8----0-0----0----0----0-0----0----0-|
A|--8---8----8---8---(8)----8---8----8---8----0-0----0----0----0-0----0----0-|
E|--8---8----8---8---(8)----8---8----8---8----0-0----0----0----0-0----0----0-|


E|-----------------------------------------|
B|-----------------------------------------|
G|-----------------------------------------|    x2
D|-----------------------------------------|
A|--8--7--0--8--7--0--8--7--0--8--7--0-----|
E|-----------------------------------------|


******************************************************************************
E|----------------13~-----12~---------------------------------|
B|-------------------------------11---------(11)---------(11--|
G|------------------------------------------------------------|
D|--10----(10)------------------------------------------------|
A|--10----(10)------------------------------------------------|
E|--10----(10)------------------------------------------------|



E|----------------------------------------------------|
B|-------------10----(10)b----(10)--------------------|
G|-----7----------------------------------------------|
D|----------8------------------------10----(10)-------|
A|-----------------------------------10----(10)-------|
E|-----------------------------------10----(10)-------|


******************************************************************************
E|--13~-----12~----------------------------------------------|
B|-------------------11---------(11)--10--11--10--11--10--11-|
G|-----------------------------------------------------------|
D|-----------------------------------------------------------|
A|-----------------------------------------------------------|
E|-----------------------------------------------------------|



Pre-Verse (193)
******************************************************************************
E|----------------------------------------------------------------------|
B|*---------------------------------------------------------------------|
G|----------------------------------------------------------------------|
D|--7----(7)-------------(0)----7---------------------------------------|
A|*-7----(0)----0--------(0)----7----(0)----0--0--0----0----0----0----0-|
E|--7----(0)----0--------(0)----7----(0)----0--0--0----0----0----0----0-|


******************************************************************************
E|---------------------------------------------------------------------|
B|---------------------------------------------------------------------|
G|---------------------------------------------------------------------|    x2
D|----7----(7)---(0)-------(0)-----------------------------------------|
A|----7----(0)----0--------(0)----------0--3-----0--3-----0------------|
E|----7----(0)----0--------(0)--0--3--5--------5--------5-----5--3-----|


Breakdown (209)
******************************************************************************
E|---------------------------------------------------------------------|
B|---------------------------------------------------------------------|
G|---------------------------------------------------------------------|
D|--0-----(0)-----(0)----(0)----(0)----(0)----(0)----(0)----(0)--------|(0)
A|--0-----(0)-----(0)----(0)----(0)----(0)----(0)----(0)----(0)--------|(0)
E|--0-----(0)-----(0)----(0)----(0)----(0)----(0)----(0)----(0)--------|(0)


******************************************************************************
E|--------------------------------------------------------|
B|--------------------------------------------------------|
G|--------------------------------------------------------|        x2
D|----------------------------------------------1---------|
A|--0---0---0---0---0---0---0---0---0---0---0---1---------|
E|--0---0---0---0---0---0---0---0---0---0---0---1---------|

******************************************************************************
E|------------------------------------------------------------|
B|------------------------------------------------------------|
G|------------------------------------------------------------|
D|------------------------------------------------------------|
A|--0---0---0---0---0---0-----------0--3-----0--3-----0-------|
E|--0---0---0---0---0---0--0--3--5--------5--------5-----5--3-|
******************************************************************************
E|------------------------------------------------|
B|------------------------------------------------|
G|------------------------------------------------|
D|----------------------------------------------1-|
A|--0---0---0---0---0---0---0---0---0---0---0---1-|
E|--0---0---0---0---0---0---0---0---0---0---0---1-|

******************************************************************************
E|-----------------------------------------------------------------------|
B|-----------------------------------------------------------------------|
G|-----------------------------------------------------------------------|
D|-----------------------------------------------------------------------|
A|--0---0---0---0---0---0-----------0--3-----0--3-----0--------0---0---0-|
E|--0---0---0---0---0---0--0--3--5--------5--------5-----5--3--0---0---0-|


******************************************************************************
E|--------------------------------------------------------------|
B|--------------------------------------------------------------|
G|--10----------9-----------5---(5)---8-------------------------|
D|--------------------------------------------------------------|
A|--8---0---0---7---0---0---3---(3)---6---0---0---0---0---0---0-|
E|------0---0-------0---0-----------------0---0---0---0---0---0-|



E|--------------------------------------------------------|
B|--------------------------------------------------------|
G|--------------------------------------------------------|
D|--------------------------------------------------------|
A|-----------------0--3-------0--3-----0--------0---0---0-|
E|-----0---3---5----------5---------5-----5--3--0---0---0-|



Bridge (257)
E|--------------8-----------10---8---(8)---8-----------------------|
B|------------------6--------------------------6---(6)-------------|
G|--7/10----7-----------7-----------------------------------7------|
D|------------------------------------------------------8----------|(8)
A|-----------------------------------------------------------------|
E|-----------------------------------------------------------------|
******************************************************************************


E|-----6------------------------------------------------|
B|-----------------6-----------6------------------------|
G|---------7-----------7-----------7-------7/--10---7---|
D|-------------8-----------8-----------8----------------|
A|------------------------------------------------------|
E|------------------------------------------------------|




E|--8-----------10---8---(8)---8----------|
B|------6--------------------------6------|(6)
G|----------7-----------------------------|
D|----------------------------------------|
A|----------------------------------------|
E|----------------------------------------|



E|---------------------------6----------------------|
B|---------------6------------------------6---------|
G|------7------------7-----------7------------7-----|
D|--8------(8)-----------8-----------8------------8-|
A|--------------------------------------------------|
E|--------------------------------------------------|


Interlude (273)
******************************************************************************
E|-------------------------------------------------------------|
B|-------------------------------------------------------------|
G|-------------------------------------------------------------|
D|-----------7---------5---------------------------------------|
A|--5--5--7-----8--5------5--5--7--5--0--0--5--x--x--7b--------|
E|--0------------------------------------------0--0------------|




E|---------------------------------------------------|
B|---------------------------------------------------|
G|---------------------------------------------------|
D|-------------------8--7-5-----------8--7-5---------|
A|--5----5--7--8--5-----------8--7-5----------8--7-5-|
E|----0----------------------------------------------|



E|-------------------------------------|
B|-------------------------------------|
G|-------------------------------------|
D|-------------------------------------|
A|-----------0--3-----0--3-----0-------|
E|--0--3--5--------5--------5-----5--3-|


******************************************************************************
E|-------------------------------------------------------------------|
B|-------------------------------------------------------------------|
G|--------------------------5-----5--------4-----4-------------------|
D|----------7----7---------------------------------------------------|
A|----8---------------8-----------------8-----------5--------5--8--5-|
E|--0----0----0----0-----0-----0-----0----0---0--------0--0----------|



E|---------------------------------------------------------------------------|
B|---------------------------------------------------------------------------|
G|-----10--9--7------------10--9--7------------------------------------------|
D|---------------10--8--7-------------10--8--7----------7--------------------|
A|-----------------------------------------------0--0---7------------0--3----|
E|-----------------------------------------------0--0---7---0--3--5--------0-|



Chorus (289)
******************************************************************************
E|-------------------------------------------------------------------|
B|*------------------------------------------------------------------|
G|-------------------------------------------------------------------|
D|--8--(8)----8---8----8---8----8---(8)----8---8----8---8----8-------|(8)
A|*-8--(8)----8---8----8---8----8---(8)----8---8----8---8----8-------|(8)
E|--8--(8)----8---8----8---8----8---(8)----8---8----8---8----8-------|(8)




E|---------------------------------------------|
B|---------------------------------------------|
G|---------------------------------------------|
D|------8---8----8---8---(8)----8---8----8---8-|
A|------8---8----8---8---(8)----8---8----8---8-|
E|------8---8----8---8---(8)----8---8----8---8-|


******************************************************************************
E|-------------------------------------------------------------------------|
B|-------------------------------------------------------------------------|
G|-------------------------------------------------------------------------|
D|-------------------------------------------------------------------------|
A|----0-0----0----0----0-0----0----0---8--7--0--8--7--0--8--7--0--8--7--0--|
E|----0-0----0----0----0-0----0----0---------------------------------------|




******************************************************************************
E|----------------13~-----12~---------------------------------|
B|-------------------------------11---------(11)---------(11--|
G|------------------------------------------------------------|
D|--10----(10)------------------------------------------------|
A|--10----(10)------------------------------------------------|
E|--10----(10)------------------------------------------------|



E|----------------------------------------------------|
B|-------------10----(10)b----(10)--------------------|
G|-----7----------------------------------------------|
D|----------8------------------------10----(10)-------|
A|-----------------------------------10----(10)-------|
E|-----------------------------------10----(10)-------|


******************************************************************************
E|--13~-----12~----------------------------------------------|
B|-------------------11---------(11)--10--11--10--11--10--11-|
G|-----------------------------------------------------------|
D|-----------------------------------------------------------|
A|-----------------------------------------------------------|
E|-----------------------------------------------------------|


******************************************************************************
E|--8-------------10------------0------------8--|
B|--11------------13------------3------------11-|
G|--10------------12------------2------------10-|
D|--8-------------10------------0------------8--|
A|--8-------------10------------0------------8--|
E|--8-------------10------------0------------8--|



E|-------------10-----------0-----------(0)
B|-------------13-----------3-----------(3)
G|-------------12-----------2-----------(2)
D|-------------10-----------0-----------(0)
A|-------------10-----------0-----------(0)
E|-------------10-----------0-----------(0)



E|--
B|--
G|--
D|--
A|--
E|--
comments
We did not receive enough feedback on this tab! Please rate:
print report bad tab
1 2 3 4 5
I want to post or [tab]
guest
You may want to rate the tab now too:
select rating
Please do not post tabs as comments. Select "correction" instead!