Oops, an error
Loading. Please wait.

Second Stage Turbine Blade Tab

ver1
ver1

Album

Whole song

Interactive

More versions @911Tabs.com
9,661 views 24 this week
5 commentsread comments
1 2 3 4 5
worth learning
x 9
Autoscroll
+/-
esc
set tempo
stop
Hey! There's an official Ultimate Guitar app which is ideal
for learning songs when you're away from computer. Get the app
WARNING: You are trying to view
                                    content from Ultimate-Guitar.com
                                    in an unauthorized application,
                                    which is prohibited.

                                    Please use an official Ultimate
                                    Guitar Tabs application for iPhone,
                                    iPad or Android to access legitimate
                                    chords, guitar, bass, and drum tabs
                                    from Ultimate-Guitar.com database.

                                    Type "ultimate guitar tabs" in Apple
                                    App Store's or Android Market's
                                    search to find the application.
This is the whole cd but im a thief I took these tabs and put them together
(credit given where credit due) I hope you enjoy


Time Consumer Tab by Coheed And Cambria, www.Ultimate-Guitar.Com
coheed and cambria
time consumer

Tuneing : Droped D
/ = slide 
h = hammer    
p = pull off  
* = harmonic
. = palm mute
x = mute string


(0:02-0:25) 
e|------------5---------5-----------5---------5------------------------| 
B|---------------------------------------------------11---11---10---10-|
G|--0h2/5h7p5---7p5-5h7---7p5h7p5h7---7p5-5h7----------10---10---10----|
D|--0---0-------0---------0-----------0-----------7/8----8----8----8---|
A|---------------------------------------------------------------------| 
D|---------------------------------------------------------------------| 


e|--------------------------------------------------8------------8-----| 
B|----10------10----10----10----10----10--------11---11------11---11---| 
G|-10---10------10----10----10----10----10----10--10---10--10--10---10-| 
D|---8----8--------------------------------7/8------------8------------| 
A|----------10----10----10----10----10---------------------------------| 
D|---------------------------------------------------------------------| 


e|----------8------------8---------------------------------------------|
B|------11---11------11---11-----10----10------10---10-----------------| 
G|----10--10---10--10--10---10-----10----10------10---10---------------| 
D|-7/8------------8----------------------------------------------------| 
A|-----------------------------10----10----10/8----8----8--------------| 
D|---------------------------------------------------------------------| 


(0:28-0:51) 
e|---------5---------5-----------5---------5---13----13----13----13----| 
B|-----------------------------------------------15----15----15----15--| 
G|---7h5p7---7p5-5h7---7p5h7p5h7---7p5-5h7---------14----14----14----14| 
D|---0-------0---------0-----------0-----------------------------------| 
A|---------------------------------------------------------------------| 
D|---------------------------------------------------------------------| 


e|-13----17----17----17----17----17-------20----20---------20----20----| 
B|---15----15----15----15----15----15-------17----17--17-----17----17--| 
G|-----14----17----17----17----17----17-19----19----19---19----19----19| 
D|---------------------------------------------------------------------| 
A|---------------------------------------------------------------------| 
D|---------------------------------------------------------------------| 


e|-------20----20---------20----20-------------------------------------|
B|-17------17----17--17-----17----17--17---10----10---10---10----------| 
G|----17-----17----17---17----17----17-------10----10---10---10--------| 
D|---------------------------------------------------------------------| 
A|---------------------------------------10----10----8----8------------| 
D|---------------------------------------------------------------------| 


(0:58-1:12) 
e|-0--------0--------0--------0--------0--------0--------0-------0-----| 
B|-8-----8--8-----8--8-----8--8-----8--8-----8--8-----8--8-----8-8-----| 
G|--10-10----10-10----10-10----10-10----10-10----10-10----10-10--------| 
d|---0--------0--------0--------0--------0--------0--------0-----------| 
A|---------------------------------------------------------------------| 
D|---------------------------------------------------------------------| 

Verse 

                 (1:13-1:37)4x
e|---------------------------|-----------------------------------------| 
B|---------------------------|-----------------------------------------| 
G|---------------------------|--------------------------------5--------| 
d|-1010x1010x1010x1010x101010|(1010101010101010101010101010---3--------| 
A|--8-8x-8-8x-8-8x-8-8x-8-8-8|(-8-8-8/7-7-7/8-8-8/7-7-7/8-8---3--------| 
D|--8-8x-8-8x-8-8x-8-8x-8-8-8|(-x-x-x-x-x-x-x-x-x-x-x-x-x-x------------| 
                              pm. . . . . . . . . . . . . . 

   
                 (1:38-1:50)  2x 
e|---------------------------|-----------------------------------------| 
B|--10--10--10--10--10-------|-----------------------------------------| 
G|78--78--78--78--78---------|-------------------------------5---------| 
d|---------------------------|1010101010101010101010101010---3---------| 
A|---------------------------|-8-8-8/7-7-7/8-8-8/7-7-7/8-8---3---------| 
D|---------------------------|-x-x-x-x-x-x-x-x-x-x-x-x-x-x-------------| 

                 (1:51-2:02)  2x 
e|---------------------------|-----------------------------------------| 
B|---------------------------|-----------------------------------------| 
G|---------------------------|--------------------------------5--------| 
d|-1010x1010x1010x1010x101010|(1010101010101010101010101010---3--------| 
A|--8-8x-8-8x-8-8x-8-8x-8-8-8|(-8-8-8/7-7-7/8-8-8/7-7-7/8-8---3--------| 
D|--8-8x-8-8x-8-8x-8-8x-8-8-8|(-x-x-x-x-x-x-x-x-x-x-x-x-x-x------------| 


Chorus 
                 (2:03-2:29) 
e|----------------------|---------------------------------------------------|
B|----------------------|---------------------------------------------------| 
G|17~~9~~10~~17~~9~~10~~|1717-19191919-21212121-1717-19191919-21212121-19/17| 
d|-x--x---x---x--x---x--|-x-x--x-x-x-x--x-x-x-x--x-x--x-x-x-x--x-x-x-x--x--x| 
A|15~~7~~-8~~15~~7~~-8~~|1515-17171717-19191919-1515-17171717-19191919-17/15|
D|----------------------|---------------------------------------------------| 

end chorus with 
e|------------*12------------------------------------------------------| 
B|---------------------------------------------------------------------| 
G|-910-9~~-------------------------------------------------------------| 
d|-x-x-x---------------------------------------------------------------| 
A|-7-8-7~~-------------------------------------------------------------|
D|---------------------------------------------------------------------| 

2nd verse 
                 (2:23-2:54) 
e|---------------------------|-----------------------------------------| 
B|---------------------------|-----------------------------------------| 
G|---------------------------|--------------------------------5--------| 
d|-1010x1010x1010x1010x101010|(1010101010101010101010101010---3--------| 
A|--8-8x-8-8x-8-8x-8-8x-8-8-8|(-8-8-8/7-7-7/8-8-8/7-7-7/8-8---3--------| 
D|--8-8x-8-8x-8-8x-8-8x-8-8-8|(-x-x-x-x-x-x-x-x-x-x-x-x-x-x------------| 
pm. . . . . . . . . . . . . . 

  Fill           (2:42-2:54) 
e|---------------------------------------------------------------------| 
B|-13-11-10---------------last time play-----13----11----10~-----------| 
G|---------10-12-14----------------------------------------------------| 
d|-----------------15--------------------------------------------------| 
A|---------------------------------------------------------------------| 
D|---------------------------------------------------------------------| 

then chorus again

e|---------------------------------------------------------------------| 
B|------------8----------------3---------------------------------------| 
G|------10------10---/-----5-----5----7-7-7-7--9-9--5-5----------------| 
D|---10----10------10/---5---5-----5--7-7-7-7—-9-9--5-5----------------| 
A|-8-----------------/-3--------------5-5-5-5--7-7--3-3----------------| 
D|---------------------------------------------------------------------| 

e|---------------------------------------------------------------------| 
B|-----------------------------3---------------------------------------| 
G|-------------------------5-----5----7-7-7-7--9-9--5-5----------------| 
D|-----------------------5---5-----5--7-7-7-7—-9-9--5-5----------------| 
A|---------------------3--------------5-5-5-5--7-7--3-3----------------| 
D|---------------------------------------------------------------------| 

e|---------------------------------------------------------------------| 
B|-----------------------------3---------------------------------------| 
G|-------------------------5-----5----7-7-7-7--9-9--5-5----------------| 
D|-----------------------5---5-----5--7-7-7-7—-9-9--5-5----------------| 
A|---------------------3--------------5-5-5-5--7-7--3-3----------------| 
D|---------------------------------------------------------------------| 

e|---------------------------------------------------------------------| 
B|-----------------------------3---------------------------------------|
G|-------------------------5-----5----7-7-7-7--9-9--5-5----------------| 
D|-----------------------5---5-----5--7-7-7-7—-9-9--5-5----------------| 
A|---------------------3--------------5-5-5-5--7-7--3-3----------------| 
D|---------------------------------------------------------------------| 

e|---------------------------------------------------------------------| 
B|---------------------------------------------------------------------| 
G|--7-7-7-7--9-9--5-5--5/-3--------------------------------------------| 
D|--7-7-7-7--9-9--5-5--5/-3--------------------------------------------| 
A|--5-5-5-5--7-7--3-3--3/-1--------------------------------------------| 
D|---------------------------------------------------------------------| 

Solo:
e|---------------------------------------------------------------------| 
B|---------------------------------------------------------------------| 
G|9/10-7/9-7799/5...7-9/10/12-12-12-10-9~--9-109--9-109----------------| 
d|x--x-x/x-xxxx/x------------------------------------------------------| 
A|7/-8-5/7-5577/3------------------------------------------------------| 
D|---------------------------------------------------------------------|
Devil In Jersey City Tab by Coheed And Cambria, www.Ultimate-Guitar.Com
Verse
Claudio
Distortion
e|---------------------------------------------------|
B|---------------------------------------------------|
G|---------------------------------------------------|
D|9-99999999-----------------------5-555555555555555-|
A|9-99999999---12-12121212121212---5-555555555555555-|
E|7-77777777---10-10101010101010---3-333333333333333-|
pm  ........      . . . . . . .      ...............

Repeat 4x
(on the third time don't muffle the A[799xxx] and D[1012xxxx] power chords)

Travis
Distortion
e|------------------------------|-------10-------14-10----15-10----17-10----|
B|------------------------------|----------10----------10-------10-------10-|
G|------------------------------|-------------------------------------------|
D|------------------------------|-12-12-------12----------------------------|
A|9-9999999---12-12121212121212-|-------------------------------------------|
E|7-7777777---10-10101010101010-|-------------------------------------------|
pm  .......      . . . . . . .

Repeat 2x

e|------------------------------1414-1414-1414-1414-1212-1212-1414-1414-|
B|------------------------------1010-1010-1010-1010-1010-1010-1010-1010-|
G|------------------------------x-x--x-x--x-x--x-x--x-x--x-x--x-x--x-x--|
D|------------------------------1212-1212-1212-1212-1212-1212-1212-1212-|
A|9-9999999---12-12121212121212-----------------------------------------|
E|7-7777777---10-10101010101010-----------------------------------------|

Repeat 2x
(muffle the A and D power chords the last time)

Chorus
Claudio & Travis
Distortion
e|----------------------------------------|
B|----------------------------------------|
G|----------------------------------------|
D|----------------------------------------|
A|7-99-7/99-7/99-7/99-7-99-7/99-7/99-7/99-|
E|5-77-5/77-5/77-5/77-5-77-5/77-5/77-5/77-|

Claudio
Distortion
e|-------------------------------------------------------|
B|-------------------------------------------------------|
G|-------------------------------------------------------|
D|--0-7-5-4-------0-7-5-4-------0-7-5-4-------0-7-5-4----|
A|5---------7-5-5---------7-5-5---------7-5-5---------7-5|
E|3-------------3-------------3-------------3------------|

Travis
Clean
e|14~---12~---14~---15~-|
B|10~---10~---10~---10~-|
G|x-----x-----x-----x---|
D|12~---12~---12~---12~-|
A|----------------------|
E|----------------------|

Don't let them scare you...
Claudio
Clean
e|--------------------|
B|--------------------|
G|--------------------|
D|--------------------|
A|77777777---55555555-|
E|55555555---33333333-|
pm........   ........

Claudio
Distortion
e|-----------------------------------------|
B|-----------------------------------------|
G|-----------------------------------------|
D|-----------------------------------------|
A|99-99-99-99-77-77-77-77-5555555555555555-|
E|77-77-77-77-55-55-55-55-3333333333333333-|

Travis
Distortion
e|---------------------------------------------------------|
B|---------------------------------------------------------|
G|----------7-7-----------6-6-----------7-7-----------6-6/-|
D|0h7p5p4p0-7-7-0h7p5p4p0-7-7-0h7p5p4p0-7-7-0h7p5p4p0-7-7--|
A|---------------------------------------------------------|
E|---------------------------------------------------------|

Claudio & Travis
Distortion
e|-----------------|
B|-----------------|
G|-----------------|
D|-----------------|
A|5555555555555555-|
E|3333333333333333-|

Repeat

Repeat Everything
(Travis's lead parts in the verse are shuffled around.)

Breakdown
Travis
Clean
e|---------------------5-------5---|
B|---55555555-----3333---3---3---3-|
G|---66666666-----4444-----4-------|
D|---77777777-7/5-5555-------------| x6
A|0~-------------------------------|
E|---------------------------------|

CBomb
Clean
e|-----------------------------------------------------------------------|
B|-------------------------------------------------------------------7---|
G|---------------------------------------------------------6h7-6h7-9---7-|
D|0-7-5-4-0-2h4-0-0-00-2/777777777777\222222222/7777p0-0-0---------------| x2
A|-----------------------------------------------------------------------|
E|-----------------------------------------------------------------------|

Don't let them scare you...
e|------------|
B|------------|
G|------------|
D|------------|
A|5~~~---5~~~-|
E|7~~~---3~~~-|

Outro
Claudio
Distortion
e|---------------------------------------------------------------------------|
B|---------------------------------------------------------------------------|
G|-------------19-19--------------18-18------------19-19--------------18-18/-|
D|0h19p17p16p0-------0h19p17p16p0-------0h19p17p16-------0h19p17p16p0--------| x5
A|---------------------------------------------------------------------------|
E|---------------------------------------------------------------------------|

cont...
e|-----------------|
B|-----------------|
G|-----------------|
D|-----------------| x4
A|5555555555555555-|
E|3333333333333333-|

Travis plays the same thing as the post chorus riff.

Fin.
Everything Evil Tab by Coheed And Cambria, www.Ultimate-Guitar.Com
-------------------------------------------------------------------------------
               EVERYTHING EVIL - Coheed and Cambria
--------------------------------------------------------------------------------

By:  (albert littleman907@aol.com)
... - palm mute
*   - pinch harmonic
/ \ - slide
9x
7x  - mute after strumming
~   - let ring out


GUITAR 1'S PARTS:
-----------------
Verse:  "Wait for everything evil..."
e|---------------------------------------------------------------------------|
B|---------------------------------------------------------------------------|
G|---------------------------------------------------------------------------|
D|-4-4--4-4--4--2-2--4--2--0--2---0--5-5--5-5--4-5-7-4-5-7-------------------|
A|-2-2--2-2---------------------4----2-2--2-2--------------5-5--5-5-----5-5--|
E|---------------------------------------------------------3-3--3-3--3-------|
  ...........................................................................

Verse Cont'd:                                  (3x)
e|-------------------------------------------|-9-9--9-9x----10-10--10-10\----|
B|-------------------------------------------|-7-7--7-7x-----7--7---7--7\----|
G|-------------------------------------------|-------------------------------|
D|-------------------------------------------|-------------------------------|
A|-4-5-7-5-4-0-5-5--5-5-----5-5--4-5-7-5-4-0-|-------------------------------|
E|-------------3-3--3-3--3-------------------|-------------------------------|

Verse Cont'd:               (2x)                                  (1x)
e|-5-5--5-5x----5-5--5-5x-|-------------------------------------|------------|
B|-x-x--x-x-----x-x--x-x--|-10-10-10-12-10-10-------------------|------------|
G|-4-4--4-4x----4-4--4-4x-|-------------------------------------|-12-12-12-12|
D|------------------------|-------------------12-12-12-11-11-11-|------------|
A|------------------------|-------------------------------------|------------|
E|------------------------|-------------------------------------|------------|

Verse Cont'd:                                                  (1x)
e|------------------------------------------------------------|--------------|
B|------------------------------------------------------------|--------------|
G|12-12-12-12-12-12-12-12-12-12-12-12-12-12-12-12-12-12-12-12-|-12-12--12-12x|
D|------------------------------------------------------------|--x--x---x--x-|
A|------------------------------------------------------------|-10-10--10-10x|
E|------------------------------------------------------------|--------------|


Chorus:  "I felt much better than..."  (4x)          (1x)
e|-------------------------------------------------|-------------------------|
B|-------------------------------------------------|----6-6--6-6--6-6--6-6---|
G|-------------------------------------------------|----5-5--5-5--5-5--5-5---|
D|-5-5--5-5--5-5--5-5--5-4-2-2-2--2--2-2--2--2-4-5-|----5-5--5-5--5-5--5-5---|
A|-5-5--5-5--5-5--5-5--5-4-2-2-2--2--2-2--2--2-4-5-|12\-3-3--3-3--3-3--3-3---|
E|-3-3--3-3--3-3--3-3--3-2-0-0-0--0--0-0--0--0-2-3-|-------------------------|

Chorus Cont'd:
e|---------------------------------------------------------------------------|
B|6-6--6-5--5-5--5-5--5-5\---------------------------------------------------|
G|5-5--5-5--5-5--5-5--5-5\---------------------------------------------------|
D|5-5--5-5--5-5--5-5--5-5\---------------------------------------------------|
A|3-3--3-3--3-3--3-3--3-3\---------------------------------------------------|
E|---------------------------------------------------------------------------|

Repeat Verse:  (You can figure out what parts to repeat)

Repeat Chorus

Bridge:
e|-------0-------------------------------------------------------------------|
B|---------1~----------------------------------------------------------------|
G|---0-----------------------------------------------------------------------|
D|-3---3---------------------------------------------------------------------|
A|---------------------------------------------------------------------------|
E|---------------------------------------------------------------------------|

Next Part:  (4x)
e|---------------------------------------------------------------------------|
B|---------------------------------------------------------------------------|
G|---------------------------------------------------------------------------|
D|-6-6--6-7-7-6-6--6-6--6-6--6-6--9-9--9-9-----------------------------------|
A|-4-4--4-4-4-4-4--4-4--7-7--7-7--7-7--6-6----7-6-*-*-*--9-9--9-9-9/11-7-7---|
E|------------------------------------------7-----7-9-7--7-7--7-7-7/-9-5-5---|

Next Part Cont'd:                      (Play at end of this part)
e|-----------------------------------|---------------------------------------|
B|-----------------------------------|---------------------------------------|
G|-----------------------------------|---------------------------------------|
D|-----------------------------------|---------------------------------------|
A|-7-7--7-7--7-7--7-7--7-7--7-7--7-7-|--2~-----------------------------------|
E|-5-5--4-5--5-5--5-5--5-5--5-5--5-5-|--0~-----------------------------------|

Part After That:  (2x)
e|---------------------------------------------------------------------------|
B|---------------------------------------------------------------------------|
G|---------------------------------------------------------------------------|
D|--------------------------------4-4-4-4-4-4-4-4-4-4-4-4-4-4-4-4------------|
A|2-2-2-2-2-2-2-2-2-2-2-2-2-2-2-2-2-2-2-2-2-2-2-2-2-2-2-2-2-2-2-2-6-6-6-6-6-6|
E|0-0-0-0-0-0-0-0-0-0-0-0-0-0-0-0---------------------------------4-4-4-4-4-4|
  ...........................................................................

Part After That Cont'd:
e|---------------------------------------------------------------------------|
B|---------------------------------------------------------------------------|
G|---------------------------------------------------------------------------|
D|---------------------------------------------------------------------------|
A|6-6-6-6-6-6-6-6-6-6-7-7-7-7-7-7-7-7-7-7-7-7-7-7-7-7------------------------|
E|4-4-4-4-4-4-4-4-4-4-5-5-5-5-5-5-5-5-5-5-5-5-5-5-5-5------------------------|
  ...................................................

Outro:  "Would you run..."  (6x)
e|---------------------------------------------------------------------------|
B|---------------------------------------------------------------------------|
G|--------------------------------6-6-6-6-6-6-6-6-6-6-6-6-6/8-4-4-4-4-4-4-4-4|
D|2-2-2-2-2-2-2-2-2-2-2-2-2-2-2-2-6-6-6-6-6-6-6-6-6-6-6-6-6/8-4-4-4-4-4-4-4-4|
A|2-2-2-2-2-2-2-2-2-2-2-2-2-2-2-2-4-4-4-4-4-4-4-4-4-4-4-4-4/6-2-2-2-2-2-2-2-2|
E|0-0-0-0-0-0-0-0-0-0-0-0-0-0-0-0--------------------------------------------|
  ...............................

Outro Cont'd:
e|------------------------------------------------|--------------------------|
B|------------------------------------------------|--------------------------|
G|4-4-4-4-4-4-4-4-2-2-2-2-2-2-2-2-2-2-2-2-2-2-2-2-|--------------------------|
D|4-4-4-4-4-4-4-4-2-2-2-2-2-2-2-2-2-2-2-2-2-2-2-2-|---2~---------------------|
A|2-2-2-2-2-2-2-2-0-0-0-0-0-0-0-0-0-0-0-0-0-0-0-0-|---2~---------------------|
E|------------------------------------------------|---0~---------------------|

GUITAR 2'S PARTS:
-----------------
Verse:  "Wait for everything evil..."  (10x, listen for when you stop palm muting)
e|---------------------------------------------------------------------------|
B|---------------------------------------------------------------------------|
G|---------------------------------------------------------------------------|
D|-4-4--4-4--4--2-2--4--2--0--2---0--5-5--5-5--4-5-7-4-5-7-------------------|
A|-2-2--2-2---------------------4----2-2--2-2--------------5-5--5-5-----5-5--|
E|---------------------------------------------------------3-3--3-3--3-------|
  ...........................................................................

Verse Cont'd:
e|-------------------------------------------|
B|-------------------------------------------|
G|-------------------------------------------|
D|-------------------------------------------|
A|-4-5-7-5-4-0-5-5--5-5-----5-5--4-5-7-5-4-0-|
E|-------------3-3--3-3--3-------------------|

Chorus:  "I felt much better than..."  (3x)
e|---------------------------------------------------------------------------|
B|-----7-----7-----7-----7---------------------------------------------------|
G|-4-4---4-4---4-4---4-4-----------------------------------------------------|
D|---------------------------------------------------------------------------|
A|---------------------------------------------------------------------------|
E|---------------------------------------------------------------------------|

Chorus Cont'd:  (2x)                                 (1x)
e|-------------------------------------------------|-------------------------|
B|-------------------------------------------------|----6-6--6-6--6-6--6-6---|
G|-------------------------------------------------|----5-5--5-5--5-5--5-5---|
D|-5-5--5-5--5-5--5-5--5-4-2-2-2--2--2-2--2--2-4-5-|----5-5--5-5--5-5--5-5---|
A|-5-5--5-5--5-5--5-5--5-4-2-2-2--2--2-2--2--2-4-5-|12\-3-3--3-3--3-3--3-3---|
E|-3-3--3-3--3-3--3-3--3-2-0-0-0--0--0-0--0--0-2-3-|-------------------------|

Chorus Cont'd:
e|---------------------------------------------------------------------------|
B|6-6--6-5--5-5--5-5--5-5\---------------------------------------------------|
G|5-5--5-5--5-5--5-5--5-5\---------------------------------------------------|
D|5-5--5-5--5-5--5-5--5-5\---------------------------------------------------|
A|3-3--3-3--3-3--3-3--3-3\---------------------------------------------------|
E|---------------------------------------------------------------------------|

Repeat Verse

Repeat Chorus

Next Part:  (1x)
e|---------------------------------------------------------------------------|
B|---------------------------------------------------------------------------|
G|---------------------------------------------------------------------------|
D|-6-6--6-7-7-6-6--6-6--6-6--6-6--9-9--9-9-----------------------------------|
A|-4-4--4-4-4-4-4--4-4--7-7--7-7--7-7--6-6----7-6-*-*-*--9-9--9-9-9/11-7-7---|
E|------------------------------------------7-----7-9-7--7-7--7-7-7/-9-5-5---|

Next Part Cont'd:
e|-----------------------------------|
B|-----------------------------------|
G|-----------------------------------|
D|-----------------------------------|
A|-7-7--7-7--7-7--7-7--7-7--7-7--7-7-|
E|-5-5--4-5--5-5--5-5--5-5--5-5--5-5-|

Next Part Cont'd:  (3x)
e|----12-------12-------16-------16-------19-------19-------16-------14------|
B|/12----12-12----12/17----17-17----17-17----17-17----17-17----17-17----17-17|
G|---------------------------------------------------------------------------|
D|---------------------------------------------------------------------------|
A|---------------------------------------------------------------------------|
E|---------------------------------------------------------------------------|

Next Part Cont'd:
e|-14-------14---------------------------------------------------------------|
B|----17-17----17----9-----9---9---------------------------------------------|
G|-----------------9---9-9---9---9-9-9---------------------------------------|
D|---------------------------------------------------------------------------|
A|---------------------------------------------------------------------------|
E|---------------------------------------------------------------------------|

Part After That:  (2x)
e|---------------------------------------------------------------------------|
B|---------------------------------------------------------------------------|
G|---------------------------------------------------------------------------|
D|9-9-9-9-9-9-9-9-9-9-9-9-9-9-9-9-9-9-9-9-9-9-9-9-9-9-9-9-9-9----------------|
A|7-7-7-7-7-7-7-7-7-7-7-7-7-7-7-7-7-7-7-7-7-7-7-7-7-7-7-7-7-7-6-6-6-6-6-6-6-6|
E|------------------------------------------------------------4-4-4-4-4-4-4-4|

Part After That Cont'd:
e|---------------------------------------------------------------------------|
B|---------------------------------------------------------------------------|
G|---------------------------------------------------------------------------|
D|---------------------------------------------------------------------------|
A|6-6-6-6-6-6-6-6-7-7-7-7-7-7-7-7-7-7-7-7-7-7-7-7----------------------------|
E|4-4-4-4-4-4-4-4-5-5-5-5-5-5-5-5-5-5-5-5-5-5-5-5----------------------------|

Outro:  (6x)
e|---------------------------------------------------------------------------|
B|---------------------------------------------------------------------------|
G|-9-9-9-9\4-4-4-4-12-12-12-11-11-12-17-17-17-17-17-17-17-17-17-17-17-17-17--|
D|-x-x-x-x-x-x-x-x--x--x--x--x--x--x--x--x--x--x--x--x--x--x--x--x--x--x--x--|
A|-7-7-7-7\2-2-2-2-10-10-10--9--9-10-14-14-14-14-14-14-14-14-14-14-14-14-14--|
E|---------------------------------------------------------------------------|
delirium Trigger Tab by Coheed And Cambria, www.Ultimate-Guitar.Com
Drop D Tuning

E|--10---------------------------------
B|----10---11-10---------------10-11---
G|------10-------10-12-9-10------------
D|--------------------------12---------  4x
A|-------------------------------------
D|-------------------------------------


At the end of the 4th time play this
E|-----------------------
B|-----------------------
G|--5-5--5-5---3---------
D|--5-5--5-5---3---------
A|--3-3--3-3---1---------
D|-----------------------

These are just the cords figure out the strumming pattern.

E|------------------------------------------------
B|------------------------------------------------
G|--10----9-----7----5-----3----------------------
D|------------------------------------------------
A|--8-----8-----5----7-----5----------------------
D|------------------------------------------------


Play muted stings 4x each.
E|----x----x----x----x----x----x---------------------------
B|----x----x----x----x----x----x---------------------------
G|--7-x--7-x--3-x--3-x--7-x--7-x--5-5-5-5-5--3-3-3-3-3-----
D|--7-x--7-x--3-x--3-x--7-x--7-x--5-5-5-5-5--3-3-3-3-3-----   4x
A|--5-x--5-x--1-x--1-x--5-x--5-x--3-3-3-3-3--1-1-1-1-1-----
D|----x----x----x----x----x----x---------------------------


E|------------------------------
B|------------------------------
G|------------------------------
D|--------------------2-3-5-----
A|----1-0---3---1-3-5-----------
D|--0-----0---0-----------------


These are just the cords figure out the strumming pattern.

E|------------------------------------------------
B|------------------------------------------------
G|--10----9-----7----5-----3----------------------
D|------------------------------------------------    2x
A|--8-----8-----5----7-----5----------------------
D|------------------------------------------------


then hold this for the hello.... hello part

E|--------
B|--------
G|--10----
D|--------
A|--8-----
D|--------



These are just the cords figure out the strumming pattern.

E|------------------------------------------------
B|------------------------------------------------
G|--10----9-----7----5-----3----------------------
D|------------------------------------------------  1x
A|--8-----8-----5----7-----5----------------------
D|------------------------------------------------

hold this for the next part

E|------
B|------
G|------
D|--0---
A|--0---
D|--0---


figure out the strumming for the cords right after the bar.
E|------------------------|----------------
B|------------------------|----------------
G|------------------------|--10------------
D|--10-10-10-10--8-8-8-8--|--8-----0-------  4x
A|--10-10-10-10--8-8-8-8--|--8-----0-------
D|--10-10-10-10--8-8-8-8--|--8-----0-------

Im not sure of what to play during the bridge

Fast part before the chorus
E|-------------------------------------
B|-------------------------------------
G|-----------------------9-10-12-------
D|--0-8-7-0-10-0-8-10-12---------------    7x
A|-------------------------------------
D|-------------------------------------


figure out the strumming for the cords after the bar.

E|------------------------|----------------
B|------------------------|----------------
G|------------------------|--10------------
D|--10-10-10-10--8-8-8-8--|--8-----0-------  4x
A|--10-10-10-10--8-8-8-8--|--8-----0-------
D|--10-10-10-10--8-8-8-8--|--8-----0-------


End on

E|----------------------------
B|----------------------------
G|----------------------------
D|--10-10-10-10--8-8-8-8------
A|--10-10-10-10--8-8-8-8------
D|--10-10-10-10--8-8-8-8------
Heartshot Kid Disaster Tab by Coheed And Cambria, www.Ultimate-Guitar.Com
-------------------------------------------------------------------------------
                 HEARTSHOT KID DISASTER - Coheed and Cambria
-------------------------------------------------------------------------------

Tabbed by: joecool71
Email: mattconnellan@yahoo.com, mconne@lincoln.navy.mil 

Tuning: Drop D (D A D G B E)

Ahhh... the only song on The Second Stage Turbine Blade which doesn't have a tab
on this website. Although I can see why... the verse riff really isn't very good,
is it? But the chorus and the outro are cool as hell, so here you are. Enjoy!

Intro pt. 1
e|---------------------------------|
B|---------------------------------|
G|-9-9------------9-9-9------------|
D|-x-x-x-10-8-x-x-x-x-x-x-10-8-x-x-|
A|-7-7-x-10-8-x-x-7-7-7-x-10-8-x-x-|
D|-----x-10-8-x-x-------x-10-8-x-x-|

Intro lead (just keep hitting this "chord" over and over)
e|-12-|
B|-14-|
G|----|
D|----|
A|----|
D|----|

Intro pt. 2
e|-----------------------------------0---0-----------------------------------|
B|---------------------------------------------------------------------------|
G|---------------------------------4---2---0---------------------------------|
D|-5-5-5--5-5-5--5-7--0-0-0--0-0-0-----------5-5-5--5-5-5--5-7--0-0-0--0-0-0-|
A|-5-5-5--5-5-5--5-7--0-0-0--0-0-0-----------5-5-5--5-5-5--5-7--0-0-0--0-0-0-|
D|-5-5-5--5-5-5--5-7--0-0-0--0-0-0-----------5-5-5--5-5-5--5-7--0-0-0--0-0-0-|

Verse (chords)
e|-------|
B|-------|
G|-------|
D|-5---0-|
A|-5---0-|
D|-5---0-|

Verse lead
e|---------------------------------|------------------------------------|
B|-------------------------8-8-----|----7-----------------------8-8-----|
G|-----7-----------------------7-7-|------7-------------------------7-7-|
D|-9-9---X5------------------------|-OR-----9-x5------------------------|
A|-------------0-------0-----------|----------------0-------0-----------|
D|-----------0---0-0-0---0---------|--------------0---0-0-0---0---------|

Chorus pt. 1 (chords)
e|----------------|
B|----------------|
G|----------------|
D|----------------|
A|-9---12---5---4-|
D|-9---12---5---4-|
   .   .    .   .
Chorus pt. 2
e|-----------------------------------------------|
B|-----------------------------------------------|
G|-----------------------------------------------|
D|-9-X16--12-X16--5-X16--4-4-4-4-4-4-5-5-7-7-9-9-|
A|-9------12------5------4-4-4-4-4-4-5-5-7-7-9-9-|
D|-9------12------5------4-4-4-4-4-4-5-5-7-7-9-9-|
                           . .   . .
Chorus lead
e|----------------------------------10-----9-----10-----9----------->
B|-10-----------10-----------10---7----7-7---7------7-7---7---5----->
G|----7---9-7------7---9-7------9--------------9------------9---7-7->
D|------9-----9------9-----9---------------------------------------->
A|------------------------------------------------------------------>
D|------------------------------------------------------------------>

e|-------------------10-------12-------14----------------------------------|
B|-12-10----10----------10-------10-------15----17-17-17-17-17-17-17-17-17-|
G|-------11----11----------11-------11-------16-16-16-16-16-16-16-16-16-16-|
D|----------------12-------------------------------------------------------|
A|-------------------------------------------------------------------------|
D|-------------------------------------------------------------------------|

Phase II
e|-----------------------------------------------------|
B|-----------------------------------------------------|
G|-----------------------------------------------------|
D|-7-7-7-7--7-7-7-7--7-7-7-7-7-7-7-7--7-7-7-7--7-7-7-7-|
A|-5-5-5-4--5-5-5-4--5-5-5-4-5-5-5-4--5-5-5-4--5-5-5-4-|
D|-----------------------------------------------------|

Phase II lead
e|-10-10-10-10--10-10-10-10--10-10-10-9-9-9-9--9-9-9-9--9-9-9->
B|-7--7--7--7---7--7--7--7---7--7--7--7-7-7-7--7-7-7-7--7-7-7->
G|------------------------------------------------------------>
D|------------------------------------------------------------>
A|------------------------------------------------------------>
D|------------------------------------------------------------>

e|--------------------------------------------------------------|
B|-----7---7-------7---7----------------------------------------|
G|-7h9---9---9-7h9---9---9-7h9-------7---7-------7---7----------|
D|-----------------------------9-7h9---9---9-7h9---9---9-7h9----|
A|-----------------------------------------------------------10-|
D|--------------------------------------------------------------|

Phase III
e|------------------------------------------------|
B|------------------------------------------------|
G|------------------------------------------------|
D|-5-5-5-5--5-5-5-5--5-5-5-5--5-5-5-5--9--9--7--7-|
A|-5-5-5-5--5-5-5-5--5-5-5-5--5-5-5-5--9--9--7--7-|
D|-5-5-5-5--5-5-5-5--5-5-5-5--5-5-5-5--9--9--7--7-|

Phase III lead
e|--------------------------|
B|--------------7--------10-|
G|-------7----7---7----7----|
D|-/9--9-------------9------|
A|---------9----------------|
D|--------------------------|

Phase IV pt. 1 (chords)
e|-------|
B|-------|
G|-------|
D|-5---4-|
A|-5---4-|
D|-5---4-|

Phase IV pt. 2
e|------------------------|
B|------------------------|
G|------------------------|
D|-5-4-0-0-X3-5-4-5-7-5-4-|
A|-5-4-0-0----5-4-5-7-5-4-|
D|-5-4-0-0----5-4-5-7-5-4-|

LYRICS AND RIFF PLACEMENT

[INTRO PT. 1] X4
[INTRO PT. 1 W/ LEAD] X8
[INTRO PT. 2]
[VERSE W/ LEAD] X8
Still searching for your call today sit down and structure will you be the engineer?
Still tired and dreaming out against and overboard
When pain kills you'll hate me and wait for or
Then call me crazy and pretend I left us discontent and afraid
So what so I'm crazy then send me justice and I'll have Paris in flames
[CHORUS PT. 1]
Still searching for your faith in the arm that killed the president
Relapse waiting here for
[CHORUS PT. 1 W/ LEAD]
Still searching for your face in the crowd that killed the president
Relapse waiting here for
[CHORUS PT. 2]
I need Mayo I won't fail you now
Dear captain send the S.O.S. when we're gonna go down
[CHORUS PT. 2 W/ LEAD]
I need Mayo I won't fail you now (Oh God you're all fucked up for sure)
Dear captain send the S.O.S. when we're gonna go down
[VERSE W/ LEAD] X4
Wound open and squeezing my heart against this pain inflicts
And in passion I bleed for it
But with this what they gave me this book
And flint and a match to go with it
[CHORUS PT. 1]
Still searching for your faith in the arm that killed the president
Relapse waiting here for
[CHORUS PT. 1 W/ LEAD]
Still searching for your face in the crowd that killed the president
Relapse waiting here for
[CHORUS PT. 2]
I need Mayo I won't fail you now
Dear captain send the S.O.S. when we're gonna go down
[CHORUS PT. 2 W/ LEAD]
I need Mayo I won't fail you now (Oh God you're all fucked up for sure)
Dear captain send the S.O.S. when we're gonna go down
[PHASE II LEAD]
[PHASE II W/ LEAD] X3
Have you ever heard the lyrics he sang?
In his thoughtful transmission the words lost sentence remain
Sing his song, sing his song loud
Structure will you be the engineer?
Where's your song or have you lost the key or tone?
[PHASE III W/ LEAD] X4
Thank God for your strength will you hold your breath?
Waiting for me to exhale in the short life lived
[PHASE IV PT. 1]
[PHASE IV PT. 2]
[PHASE IV PT. 1]
When you lived...
[PHASE IV PT. 2]
[PHASE IV PT. 1] X3
When you lived...
[PHASE IV PT. 2] X4

| /  slide up
| \  slide down
| h  hammer-on
| p  pull-off
| ~  vibrato
| +  harmonic
| x  Mute note
===============================================================================
3 3 Tab by Coheed And Cambria, www.Ultimate-Guitar.Com
Tuning: Standard


                           ::INTRO::
e|-----------------------------------------------------------------|
B|-----------------------------------------------------------------|
G|-----------------------------------------------------------------|
D|--3-3--3-3--3-3--3-3--3-3-3-3--3-3--3-3--3-3--3-3--3-3-3-3-------|
A|--1-1--1-1--1-1--1-1--1-1-1-1--1-1--1-1--1-1--1-1--1-1-1-1-------|
E|-----------------------------------------------------------------|

e|-----------------|
B|-----------------|
G|--6--------------|
D|--4-(16x)--------|
A|-----------------|
E|-----------------|

               ::VERSE::
e|-----------------------------------------|
B|---------6-----6h7p6---------------------|
G|-----------------------------------------|
D|-------------------------------8---------|
A|-----------------------------------------|
E|---6-6-6---6-6-------6-6-6-6-6-----------|
P.M. . . .   . .       . . . . . .

               ::VERSE::
e|------------------------------------|--------------|
B|---------6-----6h7p6----------------|--------------|
G|---------------------8-------6------|--------------|
D|-----------------------8-6-8---8----|----11--------|
A|------------------------------------|----8--(32x)--|
E|---6-6-6---6-6----------------------|--------------|
P.M. . . .   . .       . . . . . .

                    ::Chorus::  
e|-------------------------------------------------------|
B|-------------------------------------------------------|
G|-------------------------------------------------------|
D|---6-6-6-6-6-------------3-3--3-3--6-6-----------------|
A|---4-4-4-4-4--6-6-6-6-6--1-1--1-1--4-4--4-4-4-4--------|
E|--------------4-4-4-4-4-----------------2-2-2-2--------|

e|------------------------------------|
B|------------------------------------|
G|------------------------------------|
D|---6-6-6-6-6-------------3----------|
A|---4-4-4-4-4--6-6-6-6-6--1--4~------|
E|--------------4-4-4-4-4-----2~------|

              ::POST CHORUS::
e|------------------------------------------|
B|---------11-9-------11-9--11-9--9-9-------|
G|------11---------11-----------------------|
D|---11---------11--------------------------|
A|------------------------------------------|
E|------------------------------------------|
P.M. .  .  .    .  .  . 

   "A Patrick, Shortflip And..."
e|-----------------------------------------------------------------|
B|-----------------------------------------------------------------|
G|-----------------------------------------------------------------|
D|---3-3--3-3--3-3--3-3--3-3-3-3--3-3--3-3--3-3--3-3--3-3-3-3------|
A|---1-1--1-1--1-1--1-1--1-1-1-1--1-1--1-1--1-1--1-1--1-1-1-1------|
E|-----------------------------------------------------------------|

 "Hold On To The Things You Favor Most..."
e|--------------------------------------------------------|
B|--------------------------------------------------------|
G|--------------------------------------------------------|
D|---6-6-6-6-6-6--------3-3-3-----------------------------|
A|---4-4-4-3-3-3--7-7-7-1-1-1--4~-4-4-4-4-4-4-4-4---------|
E|----------------5-5-5--------2~-2-2-2-2-2-2-2-2---------|

Junesong Provision Tab by Coheed And Cambria, www.Ultimate-Guitar.Com
Coheed and Cambria
Junesong Provision

Droped D Tuning - D-A-D-G-B-E

Palm Mute  = *
Slide Up   = /
Slide Down = \

Intro (Guitar 2)

E|---------------------------------------------------------------|
B|---------------------------------------------------------------|
G|---------------------------------------------------------------|
D|--4--4-4-------------------------7--7-------------7-7-7-7-6-7--| (7x)
A|--2--2-2-0-----4-----0-----0-----5--5-------------5-5-5-5-4-7--|
D|---------0-0-0-4-4-4-0-0-0-0-0-0-5--5-5-5-5-5-5-5-----------7--|
your low E (D) in this case might rattle so mute it if you have to

Fill #1 (Guitar 1) - Played During Intro

E|---------------------------------10-----10-----10-----10-----10--|
B|-------------------------10--7-8----7-8----7-8----7-8----7-8-----|
G|-------4------4---4--7-4-----------------------------------------|
D|--/4-5---4-5----4------------------------------------------------|
A|-----------------------------------------------------------------|
D|-----------------------------------------------------------------|

Fill #2 (Guitar 1) - Played During Intro

E|-----------------------------10-----10-----------------|
B|-------------------------10-----7-7----7-7-7-10-8-7----|
G|-------4------4---4--7-4----------------------------9--|
D|--/4-5---4-5----4--------------------------------------|
A|-------------------------------------------------------|
D|-------------------------------------------------------|

Now all you need is someone to shoot a gun and you got the song.....
Neverender Tab by Coheed And Cambria, www.Ultimate-Guitar.ComCOHEED AND
CAMBRIANeverender NOTE: Except where specifically noted, all of this is just
Claudio's part.
Intro:
e|-------------------------------------------------------|
B|-------------------------------------------------------|
G|-------------------------------------------------------|
D|---6-6---6-6---4-4---2-2------PM-----PM----------------|
A|---4-4---0-0---0-0---0-0-----4\-6--6-6-6---------------|
E|-----------------------------2\-4--4-4-4---------------|

continued...
e|--------------------------------------------------------------|
B|------------------------------------------------------4-5-4-0-|
G|--------------------------------------------------------------|
D|----------------9-9----------------PM---PM---PM---PM----------|
A|---11-11-11-11--7-7--7-7--7-7-----4-4--4-4--4-6--6-6----------|
E|---9--9--9--9--------5-5--5-5-----2-2--2-2--2-4--4-4----------|

Verse:(all palm muted except for *)
e|--------------------------------------------------------------------------|
B|---------------------------------------------------------------*4-5*------|
G|--------------------------------------------------------------------------|
D|-----6-6-6-6---6-6-6-6---4-4-4-4----*6-6--6-6--6-6-6-6--6-6*--------------|
A|-----4-4-4-4---0-0-0-0---0-0-0-0----*7-7--7-7--7-7-7-7--7-7*--------------|
E|------------------------------------*5-5--5-5--5-5-5-5--5-5*--------------|

Chorus:
e|----0~------0~------------------------------------------------------------|
B|----0~------2~------------------------------------------------------------|
G|----1~------2~------------------------------------------------------------|
D|----2~------2~------6~-----9----------------------------------------------|
A|----2~------0~------4~-----7-----7~---------------------------------------|
E|----0~---------------------------5~---------------------------------------|

REPEAT 2ND HALF OF INTRO ONCEREPEAT VERSEREPEAT

CHORUSBridge: "Point your gun in another direction"
e|--------------------------------------------------------------------------|
B|--------------------------------------------------------------------------|
G|-------------------------------------2-2-2-2-2-2-2-2-2-2-2-2-2-2-2-2------|
D|---6-6-6-6-6-6-6-6-------------------2-2-2-2-2-2-2-2-2-2-2-2-2-2-2-2------|
A|---4-4-4-4-4-4-4-4--2-2-2-2-2-2-2-2--0-0-0-0-0-0-0-0-0-0-0-0-0-0-0-0------|
E|--------------------0-0-0-0-0-0-0-0---------------------------------------|
WHEN CLAUDIO SINGS "after the fall" REPEAT 1ST HALF OF INTRO.WHEN HE SINGS THE
"will he be home again" PART, PLAY THE 2ND HALF.REPEAT CHORUSREPEAT BRIDGEFADE
OUTAND YOU'RE DONE...

god Send Conspirator Tab by Coheed And Cambria, www.Ultimate-Guitar.Com
God Send Conspirator 
Second Stage Turbine Blade

This is one of my favorie coheed and cambria
songs hope you enjoy...


guitar 1
e|---------------------------------|
b|-0x-0-00---------0x-0-00---3-----|
g|-4x-4-44---------4x-4-44----5----|
D|-5x-5-55--77-55--5x-5-55--5--5---|
A|-3x-3-33--55-33--3x-3-33---------|
E|---------------------------------|


e|---------------------------------------|
b|-0x-0-00--x3h5p3-0--0x-0-00--x1h3p1-0--|
g|-2x-2-22------------2x-2-22------------|
D|-0x-0-00------------0x-0-00------------|
A|-3x-3-33------------3x-3-33------------|
E|---------------------------------------|

guitar 2
e|---------------------------------|
b|-10--10-1010-------10--10-1010---|
g|-11x-11-1111x------11x-11-1111---|
D|-12x-12-1212x------12x-12-1212---|
A|---------------------------------|
E|---------------------------------|


e|-10x-10-10~-----------------------10x-10-10-10~-------7--------|
b|-10x-10-----13p12p10--------------10x-10-10----10------8--8~---|
g|-11x-11--------------12------12~--11x-11-11------11-----9------|
D|-12x-12-----------------12h14-----12x-12-12--------12----------|
A|---------------------------------------------------------------|
E|---------------------------------------------------------------|

hold in your last breath and stare
assure me your metronome left arm stick shift is stuck on the right words in your ear
could you hear me loud and clear? in sight and out of mind
cautiously avoiding the cracks not to disturb your steadied arm straight line
the facts before a climb... a plan before a crime
tired in the days that passed away
sporadically arranged across your floor when you've got it made

both guitars
e|-------------------------------|
b|-------------------------------|
g|-------------------------------|
D|-----77--------77--------------|
A|---55--55----55--55------------|
E|-33--------33------------------|

dear mariah

guitar 1
e|--------------------------------------|
b|------3-------------------------------|
g|------4-xx-77-7--5555555--------------|
D|-22---4-xx-77-7--5555555--3333333-----|
A|-22---2-xx-55-5--3333333--3333333-----|
E|-00-0---------------------1111111-----|


e|//10-10---1010-----10-----10-----|
b|//8----8------8h10----8h10---8-8-|
g|//9-----9---------------------|
D|------------------------------|
A|------------------------------|
E|------------------------------|

the worlds not big enough for the both of us when we live in the same town

both guitars
e|-------------------------------|
b|-------------------------------|
g|-------------------------------|
D|-----77--------77--------------|
A|---55--55----55--55------------|
E|-33--------33------------------|

fight on fire (fight on fire)

both guitars
e|--------------------------------------|
b|------3-------------------------------|
g|------4-xx-77-7--5555555--------------|
D|-22---4-xx-77-7--5555555--3333333-----|
A|-22---2-xx-55-5--3333333--3333333-----|
E|-00-0---------------------1111111-----|

burn my hands till i got nothing left to count my numbers on


e|------------------------------------|
b|------------------------------------|
g|------------------------------------|
D|-22222222-555-555-55-555-555--------|
A|-22222222-333-222-00-222-000-00-----|
E|-00000000--------------------33-----|

that's wrong (thats wrong)

guitar 1
e|---------------------------------|
b|-0x-0-00---------0x-0-00---3-----|
g|-4x-4-44---------4x-4-44----5----|
D|-5x-5-55--77-55--5x-5-55--5--5---|
A|-3x-3-33--55-33--3x-3-33---------|
E|---------------------------------|


e|---------------------------------------|
b|-0x-0-00--x3h5p3-0--0x-0-00--x1h3p1-0--|
g|-2x-2-22------------2x-2-22------------|
D|-0x-0-00------------0x-0-00------------|
A|-3x-3-33------------3x-3-33------------|
E|---------------------------------------|

guitar 2
e|---------------------------------|
b|-10--10-1010-------10--10-1010---|
g|-11x-11-1111x------11x-11-1111---|
D|-12x-12-1212x------12x-12-1212---|
A|---------------------------------|
E|---------------------------------|


e|-10x-10-10~-----------------------10x-10-10-10~-------7--------|
b|-10x-10-----13p12p10--------------10x-10-10----10------8--8~---|
g|-11x-11--------------12------12~--11x-11-11------11-----9------|
D|-12x-12-----------------12h14-----12x-12-12--------12----------|
A|---------------------------------------------------------------|
E|---------------------------------------------------------------|

your wise ass comments could cheer you up
the emotional disturbance relax deep breathe sit back from the space
in which you stand
here and in demand don't touch a fresh wound that bleeds
all over you carpets the stains the story book remains and the pag
that states you've tied
accept and then reply acknowledge the other guy, tired in the days
that pasted away
sporadically arragned across the floor when you've got it made

both guitars
e|-------------------------------|
b|-------------------------------|
g|-------------------------------|
D|-----77--------77--------------|
A|---55--55----55--55------------|
E|-33--------33------------------|

dear mariah

guitar 1
e|--------------------------------------|
b|------3-------------------------------|
g|------4-xx-77-7--5555555--------------|
D|-22---4-xx-77-7--5555555--3333333-----|
A|-22---2-xx-55-5--3333333--3333333-----|
E|-00-0---------------------1111111-----|


guitar 2
e|//10-10---1010-----10-----10-----|
b|//8----8------8h10----8h10---8-8-|
g|//9-----9---------------------|
D|------------------------------|
A|------------------------------|
E|------------------------------|

the worlds not big enough for the both of us when we live in the same town



both guitars
e|-------------------------------|
b|-------------------------------|
g|-------------------------------|
D|-----77--------77--------------|
A|---55--55----55--55------------|
E|-33--------33------------------|

fight on fire(fight on fire)


both guitars
e|--------------------------------------|
b|------3-------------------------------|
g|------4-xx-77-7--5555555--------------|
D|-22---4-xx-77-7--5555555--3333333-----|
A|-22---2-xx-55-5--3333333--3333333-----|
E|-00-0---------------------1111111-----|


burn my hands till i got nothing left to count my numbers on

both guitars
e|----------------------------------------------------|
b|----------------------------------------------------|
g|-------------------22-22-22-22-22-22----------------|
D|-22-22-22-33-33-33-00-00-00-00-00-00-2222222222-----|
A|-33-33-33-33-33-33-33-33-33-33-33-33-0000000000-----|
E|----------------------------------------------------|


guitar 2
e|-----7~-5~---|
b|---5------5--|
g|-/5-5--------|
D|-------------|
A|-------------|
E|-------------|

e|-----12~-10~-|
b|---8---------|
g|-/9-9--------|
D|-------------|
A|-------------|
E|-------------|


don't change your mind when alls been won
your words in time with the loss that you'd let them go
don't let them fall if your grips not strong
in time decide... with the words you should let them go


guitar 1
e|-3---------------------------|
b|-3----1---1----1---1---0-----|
g|-0--0--0---0----0---0---0----|
D|-0--3---3---3----3---3-------| repeat 4x
A|-2--3------------------------|
E|-3---------------------------|

e|-3-----|
b|-3--1--|
g|-0--0--|
D|-0--2--| 
A|-2-----|
E|-3-----|

guitar 2
e|----/8---8---8---8---8------|
b|----/-8---8---8---8---8-----|
g|-8--/--10--10--10--10--10---| repeat 3x
D|-10-------------------------|
A|-10-------------------------|
E|----------------------------|

dear mariah come sleep in your own...

guitar 1
e|-7--|
b|-8--|
g|-10-|
D|-10-|
A|----|
E|----|


guitar 1
e|-------------------------------------------------------------------------|
b|-------------------------------------------------------------------------|
g|-44444444---------2222222-----(2*)(2*)-----------------------------------| 
D|-44444444-4444444-2222222-(2h4*)------(0h2*h4*)---555555-22-22-----------|
A|-22222222-4444444-0000000-----------------------0-555555-22-22-00-55-55--|
E|--------------------------------------------------333333-00-00-00-33-33--|

guitar 2
e|-----------------(7)(7)------------/12-----12----0-------------------------
b|-0------0----0---------(7)(7)----------14----14---0------------------------
g|--7------6----7--------------(7)(7)------14----14------------------------- 
D|---99-/7--7-7--9-------------------------------------55555-22-22-----------
A|-----------------------------------------------------55555-22-22-00-55-55--
E|-----------------------------------------------------33333-00-00-00-33-33--

when eye meets eye be calm
will lie here alone locked the children in the floor
(who sat me down here?)
your dreams can't last forever
I Robot Tab by Coheed And Cambria, www.Ultimate-Guitar.ComI, Robot:standard tuning.
this is the secret track at the end of second stage turbine blade. there is also a
mini version of it at the end of in keeping secrents of silent earth:3, but we wontget
into that. i got this tab from the message boards at coheedandcambria.com and made a
fewalteration/simplifications to it so it would be easier to follow. enjoy. this song
is fantasticCLAUDIO:
verse
|---------------------------------------------------------|10x
|-8-----------8-----------8-----------8h10-8h10-8h10-8p0--|
|-----0-----------0-----------0---------------------------|
|---------------------------------------------------------|
|-8-------8---8-------8---8-------8---0----0----0----0----|
|---------------------------------------------------------|
pre-chorus (you've been a bad boy)
|---------------------------------------------------|5x
|---------------------------------------------------|
|---------0------------0------------0---------------|
|---------------------------------------------------|
|-----3------------3------------3------/5---4p2-0---|
|-0h1---1------0h1---1------0h1---1-----------------|
both guitars
|--------------------------------------------------------------|5x
|--------------------------------------------------------------|
|--------------------------------------------------------------|
|--------------------------------------------------------------| 
repeat as needed
|-7-7-7-7-7-7-7-7-7-0-3-3-3-3-3-3-3-3-3-0-0-0-0-0--0--0--0-----|
|-9-9-9-9-9-9-9-9-9---5-5-5-5-5-5-5-5-5-2-2-2-2-11-11-11-11----|
verse|---------------------------------------------------------|10x
|-8-----------8-----------8-----------8h10-8h10-8h10-8p0--|
|-----0-----------0-----------0---------------------------|
|---------------------------------------------------------|
|-8-------8---8-------8---8-------8---0----0----0----0----|
|---------------------------------------------------------|
pre-chorus (you've been a bad boy)
|---------------------------------------------------|5x
|---------------------------------------------------|
|---------0------------0------------0---------------|
|---------------------------------------------------|
|-----3------------3------------3------/5---4p2-0---|
|-0h1---1------0h1---1------0h1---1-----------------
|both guitars
|--------------------------------------------------------------|10x
|--------------------------------------------------------------|
|--------------------------------------------------------------|
|--------------------------------------------------------------| 
|-9-9-9-9-9-9-9-9-9---5-5-5-5-5-5-5-5-5-2-2-2-2-11-11-11-11----|
|-7-7-7-7-7-7-7-7-7-0-3-3-3-3-3-3-3-3-3-0-0-0-0-0--0--0--0-----|
outro
|-7--5~--|
|--------|
|--6-----|
|--------|
|--------|
|--------|
comments
print report bad tab
5 comments total. Showing first comments.
0 reply
concealed wrote on September 15 2004, 12:00 am

all of these tabs were stolen from either coheed messageboard

or

my website...nice try jackass (and by the way, not all credit was given where it is due, that godsend tab is mine.)

-1 reply
DreamScaperX wrote on September 24 2004, 12:00 am

most almost all of these tabs are wrong... and oh my... what a disrespectful try at everything evil... if it was you whom wrote it... *two thumbs down*

-2 reply
Fawnzee wrote on June 6 2006, 02:27 am

omfg u guys r ****ing asses hes just trying to help out in society jk

I want to post or [tab]
guest
You may want to rate the tab now too:
select rating
Please do not post tabs as comments. Select "correction" instead!